  0
SECTION
  2
HEADER
  9
$ACADVER
  1
AC1032
  9
$ACADMAINTVER
 90
      230
  9
$DWGCODEPAGE
  3
ANSI_1252
  9
$LASTSAVEDBY
  1
kaligma@hotmail.com
  9
$REQUIREDVERSIONS
160
                 0
  9
$INSBASE
 10
0.0
 20
0.0
 30
0.0
  9
$EXTMIN
 10
-4.999999999999964
 20
556.1666666666666
 30
0.0
  9
$EXTMAX
 10
2052.791938485519
 20
1576.5
 30
0.0
  9
$LIMMIN
 10
0.0
 20
0.0
  9
$LIMMAX
 10
12.0
 20
9.0
  9
$ORTHOMODE
 70
     0
  9
$REGENMODE
 70
     1
  9
$FILLMODE
 70
     1
  9
$QTEXTMODE
 70
     0
  9
$MIRRTEXT
 70
     0
  9
$LTSCALE
 40
1.0
  9
$ATTMODE
 70
     1
  9
$TEXTSIZE
 40
10.0
  9
$TRACEWID
 40
0.05
  9
$TEXTSTYLE
  7
STANDARD
  9
$CLAYER
  8
0
  9
$CELTYPE
  6
CONTINUOUS
  9
$CECOLOR
 62
   256
  9
$CELTSCALE
 40
1.0
  9
$DISPSILH
 70
     0
  9
$DIMSCALE
 40
1.0
  9
$DIMASZ
 40
0.18
  9
$DIMEXO
 40
0.0625
  9
$DIMDLI
 40
0.38
  9
$DIMRND
 40
0.0
  9
$DIMDLE
 40
0.0
  9
$DIMEXE
 40
0.18
  9
$DIMTP
 40
0.0
  9
$DIMTM
 40
0.0
  9
$DIMTXT
 40
0.18
  9
$DIMCEN
 40
0.09
  9
$DIMTSZ
 40
0.0
  9
$DIMTOL
 70
     0
  9
$DIMLIM
 70
     0
  9
$DIMTIH
 70
     1
  9
$DIMTOH
 70
     1
  9
$DIMSE1
 70
     0
  9
$DIMSE2
 70
     0
  9
$DIMTAD
 70
     0
  9
$DIMZIN
 70
     0
  9
$DIMBLK
  1

  9
$DIMASO
 70
     1
  9
$DIMSHO
 70
     1
  9
$DIMPOST
  1

  9
$DIMAPOST
  1

  9
$DIMALT
 70
     0
  9
$DIMALTD
 70
     2
  9
$DIMALTF
 40
25.4
  9
$DIMLFAC
 40
1.0
  9
$DIMTOFL
 70
     0
  9
$DIMTVP
 40
0.0
  9
$DIMTIX
 70
     0
  9
$DIMSOXD
 70
     0
  9
$DIMSAH
 70
     0
  9
$DIMBLK1
  1

  9
$DIMBLK2
  1

  9
$DIMSTYLE
  2
ISO-25
  9
$DIMCLRD
 70
     0
  9
$DIMCLRE
 70
     0
  9
$DIMCLRT
 70
     0
  9
$DIMTFAC
 40
1.0
  9
$DIMGAP
 40
0.09
  9
$DIMJUST
 70
     0
  9
$DIMSD1
 70
     0
  9
$DIMSD2
 70
     0
  9
$DIMTOLJ
 70
     1
  9
$DIMTZIN
 70
     0
  9
$DIMALTZ
 70
     0
  9
$DIMALTTZ
 70
     0
  9
$DIMUPT
 70
     0
  9
$DIMDEC
 70
     4
  9
$DIMTDEC
 70
     4
  9
$DIMALTU
 70
     2
  9
$DIMALTTD
 70
     2
  9
$DIMTXSTY
  7
STANDARD
  9
$DIMAUNIT
 70
     0
  9
$DIMADEC
 70
     0
  9
$DIMALTRND
 40
0.0
  9
$DIMAZIN
 70
     0
  9
$DIMDSEP
 70
    46
  9
$DIMATFIT
 70
     3
  9
$DIMFRAC
 70
     0
  9
$DIMLDRBLK
  1

  9
$DIMLUNIT
 70
     2
  9
$DIMLWD
 70
    -2
  9
$DIMLWE
 70
    -2
  9
$DIMTMOVE
 70
     0
  9
$DIMFXL
 40
1.0
  9
$DIMFXLON
 70
     0
  9
$DIMJOGANG
 40
0.7853981633974483
  9
$DIMTFILL
 70
     0
  9
$DIMTFILLCLR
 70
     0
  9
$DIMARCSYM
 70
     0
  9
$DIMLTYPE
  6

  9
$DIMLTEX1
  6

  9
$DIMLTEX2
  6

  9
$DIMTXTDIRECTION
 70
     0
  9
$LUNITS
 70
     2
  9
$LUPREC
 70
     4
  9
$SKETCHINC
 40
0.1
  9
$FILLETRAD
 40
3.0
  9
$AUNITS
 70
     0
  9
$AUPREC
 70
     0
  9
$MENU
  1
.
  9
$ELEVATION
 40
0.0
  9
$PELEVATION
 40
0.0
  9
$THICKNESS
 40
0.0
  9
$LIMCHECK
 70
     0
  9
$CHAMFERA
 40
0.0
  9
$CHAMFERB
 40
0.0
  9
$CHAMFERC
 40
0.0
  9
$CHAMFERD
 40
0.0
  9
$SKPOLY
 70
     0
  9
$TDCREATE
 40
2459586.915462963
  9
$TDUCREATE
 40
2459586.873796296
  9
$TDUPDATE
 40
2459793.782743056
  9
$TDUUPDATE
 40
2459793.699409722
  9
$TDINDWG
 40
1.6541435185
  9
$TDUSRTIMER
 40
1.6541435185
  9
$USRTIMER
 70
     1
  9
$ANGBASE
 50
0.0
  9
$ANGDIR
 70
     0
  9
$PDMODE
 70
     0
  9
$PDSIZE
 40
0.0
  9
$PLINEWID
 40
0.0
  9
$SPLFRAME
 70
     0
  9
$SPLINETYPE
 70
     6
  9
$SPLINESEGS
 70
     8
  9
$HANDSEED
  5
11F88
  9
$SURFTAB1
 70
     6
  9
$SURFTAB2
 70
     6
  9
$SURFTYPE
 70
     6
  9
$SURFU
 70
     6
  9
$SURFV
 70
     6
  9
$UCSBASE
  2

  9
$UCSNAME
  2

  9
$UCSORG
 10
-4.999999999999966
 20
575.0
 30
0.0
  9
$UCSXDIR
 10
1.0
 20
0.0
 30
0.0
  9
$UCSYDIR
 10
0.0
 20
1.0
 30
0.0
  9
$UCSORTHOREF
  2

  9
$UCSORTHOVIEW
 70
     0
  9
$UCSORGTOP
 10
0.0
 20
0.0
 30
0.0
  9
$UCSORGBOTTOM
 10
0.0
 20
0.0
 30
0.0
  9
$UCSORGLEFT
 10
0.0
 20
0.0
 30
0.0
  9
$UCSORGRIGHT
 10
0.0
 20
0.0
 30
0.0
  9
$UCSORGFRONT
 10
0.0
 20
0.0
 30
0.0
  9
$UCSORGBACK
 10
0.0
 20
0.0
 30
0.0
  9
$PUCSBASE
  2

  9
$PUCSNAME
  2

  9
$PUCSORG
 10
0.0
 20
0.0
 30
0.0
  9
$PUCSXDIR
 10
1.0
 20
0.0
 30
0.0
  9
$PUCSYDIR
 10
0.0
 20
1.0
 30
0.0
  9
$PUCSORTHOREF
  2

  9
$PUCSORTHOVIEW
 70
     0
  9
$PUCSORGTOP
 10
0.0
 20
0.0
 30
0.0
  9
$PUCSORGBOTTOM
 10
0.0
 20
0.0
 30
0.0
  9
$PUCSORGLEFT
 10
0.0
 20
0.0
 30
0.0
  9
$PUCSORGRIGHT
 10
0.0
 20
0.0
 30
0.0
  9
$PUCSORGFRONT
 10
0.0
 20
0.0
 30
0.0
  9
$PUCSORGBACK
 10
0.0
 20
0.0
 30
0.0
  9
$USERI1
 70
     0
  9
$USERI2
 70
     0
  9
$USERI3
 70
     0
  9
$USERI4
 70
     0
  9
$USERI5
 70
     0
  9
$USERR1
 40
0.0
  9
$USERR2
 40
0.0
  9
$USERR3
 40
0.0
  9
$USERR4
 40
0.0
  9
$USERR5
 40
0.0
  9
$WORLDVIEW
 70
     1
  9
$SHADEDGE
 70
     3
  9
$SHADEDIF
 70
    70
  9
$TILEMODE
 70
     1
  9
$MAXACTVP
 70
    64
  9
$PINSBASE
 10
0.0
 20
0.0
 30
0.0
  9
$PLIMCHECK
 70
     0
  9
$PEXTMIN
 10
1.000000000000000E+20
 20
1.000000000000000E+20
 30
1.000000000000000E+20
  9
$PEXTMAX
 10
-1.000000000000000E+20
 20
-1.000000000000000E+20
 30
-1.000000000000000E+20
  9
$PLIMMIN
 10
0.0
 20
0.0
  9
$PLIMMAX
 10
12.0
 20
9.0
  9
$UNITMODE
 70
     0
  9
$VISRETAIN
 70
     1
  9
$PLINEGEN
 70
     0
  9
$PSLTSCALE
 70
     1
  9
$TREEDEPTH
 70
  3020
  9
$CMLSTYLE
  2
Standard
  9
$CMLJUST
 70
     0
  9
$CMLSCALE
 40
1.0
  9
$PROXYGRAPHICS
 70
     1
  9
$MEASUREMENT
 70
     1
  9
$CELWEIGHT
370
    -1
  9
$ENDCAPS
280
     0
  9
$JOINSTYLE
280
     0
  9
$LWDISPLAY
290
     0
  9
$INSUNITS
 70
     0
  9
$HYPERLINKBASE
  1

  9
$STYLESHEET
  1

  9
$XEDIT
290
     1
  9
$CEPSNTYPE
380
     0
  9
$PSTYLEMODE
290
     1
  9
$FINGERPRINTGUID
  2
{DDB59A75-F870-2C45-8108-F36812CD1032}
  9
$VERSIONGUID
  2
{4292845D-C2E6-EC4F-A334-00061C009BDD}
  9
$EXTNAMES
290
     1
  9
$PSVPSCALE
 40
0.0
  9
$OLESTARTUP
290
     0
  9
$SORTENTS
280
   127
  9
$INDEXCTL
280
     0
  9
$HIDETEXT
280
     0
  9
$XCLIPFRAME
280
     2
  9
$HALOGAP
280
     0
  9
$OBSCOLOR
 70
   257
  9
$OBSLTYPE
280
     0
  9
$INTERSECTIONDISPLAY
280
     0
  9
$INTERSECTIONCOLOR
 70
   257
  9
$DIMASSOC
280
     1
  9
$PROJECTNAME
  1

  9
$CAMERADISPLAY
290
     0
  9
$LENSLENGTH
 40
50.0
  9
$CAMERAHEIGHT
 40
0.0
  9
$STEPSPERSEC
 40
2.0
  9
$STEPSIZE
 40
6.0
  9
$3DDWFPREC
 40
2.0
  9
$PSOLWIDTH
 40
0.25
  9
$PSOLHEIGHT
 40
4.0
  9
$LOFTANG1
 40
1.570796326794896
  9
$LOFTANG2
 40
1.570796326794896
  9
$LOFTMAG1
 40
0.0
  9
$LOFTMAG2
 40
0.0
  9
$LOFTPARAM
 70
     7
  9
$LOFTNORMALS
280
     1
  9
$LATITUDE
 40
37.795
  9
$LONGITUDE
 40
-122.394
  9
$NORTHDIRECTION
 40
0.0
  9
$TIMEZONE
 70
 -8000
  9
$LIGHTGLYPHDISPLAY
280
     1
  9
$TILEMODELIGHTSYNCH
280
     1
  9
$CMATERIAL
347
10004
  9
$SOLIDHIST
280
     0
  9
$SHOWHIST
280
     1
  9
$DWFFRAME
280
     2
  9
$DGNFRAME
280
     0
  9
$REALWORLDSCALE
290
     1
  9
$INTERFERECOLOR
 62
     1
  9
$INTERFEREOBJVS
345
10026
  9
$INTERFEREVPVS
346
10023
  9
$CSHADOW
280
     0
  9
$SHADOWPLANELOCATION
 40
0.0
  0
ENDSEC
  0
SECTION
  2
CLASSES
  0
CLASS
  1
ACDBDICTIONARYWDFLT
  2
AcDbDictionaryWithDefault
  3
ObjectDBX Classes
 90
        0
 91
        1
280
     0
281
     0
  0
CLASS
  1
MATERIAL
  2
AcDbMaterial
  3
ObjectDBX Classes
 90
     1153
 91
        3
280
     0
281
     0
  0
CLASS
  1
VISUALSTYLE
  2
AcDbVisualStyle
  3
ObjectDBX Classes
 90
     4095
 91
       24
280
     0
281
     0
  0
CLASS
  1
TABLESTYLE
  2
AcDbTableStyle
  3
ObjectDBX Classes
 90
     4095
 91
        1
280
     0
281
     0
  0
CLASS
  1
SCALE
  2
AcDbScale
  3
ObjectDBX Classes
 90
     1153
 91
       17
280
     0
281
     0
  0
CLASS
  1
MLEADERSTYLE
  2
AcDbMLeaderStyle
  3
ACDB_MLEADERSTYLE_CLASS
 90
     4095
 91
        1
280
     0
281
     0
  0
CLASS
  1
ACDBSECTIONVIEWSTYLE
  2
AcDbSectionViewStyle
  3
ObjectDBX Classes
 90
     1025
 91
        2
280
     0
281
     0
  0
CLASS
  1
ACDBDETAILVIEWSTYLE
  2
AcDbDetailViewStyle
  3
ObjectDBX Classes
 90
     1025
 91
        2
280
     0
281
     0
  0
CLASS
  1
DICTIONARYVAR
  2
AcDbDictionaryVar
  3
ObjectDBX Classes
 90
        0
 91
       10
280
     0
281
     0
  0
CLASS
  1
CELLSTYLEMAP
  2
AcDbCellStyleMap
  3
ObjectDBX Classes
 90
     1152
 91
        1
280
     0
281
     0
  0
CLASS
  1
SORTENTSTABLE
  2
AcDbSortentsTable
  3
ObjectDBX Classes
 90
        0
 91
        1
280
     0
281
     0
  0
ENDSEC
  0
SECTION
  2
TABLES
  0
TABLE
  2
VPORT
  5
8
330
0
100
AcDbSymbolTable
 70
     1
  0
VPORT
  5
2E
330
8
100
AcDbSymbolTableRecord
100
AcDbViewportTableRecord
  2
*ACTIVE
 70
     0
 10
0.0
 20
0.0
 11
1.0
 21
1.0
 12
1925.882923646984
 22
1009.147366715064
 13
0.0
 23
0.0
 14
0.5
 24
0.5
 15
10.0
 25
10.0
 16
0.0
 26
0.0
 36
1.0
 17
0.0
 27
0.0
 37
0.0
 40
1669.041526475509
 41
2.982653946227233
 42
50.0
 43
0.0
 44
0.0
 50
0.0
 51
0.0
 71
     0
 72
   100
 73
     1
 74
     3
 75
     1
 76
     1
 77
     0
 78
     0
281
     0
 65
     1
110
-4.999999999999966
120
575.0
130
0.0
111
1.0
121
0.0
131
0.0
112
0.0
122
1.0
132
0.0
 79
     0
146
0.0
348
10022
 60
     7
 61
     5
292
     1
282
     1
141
0.0
142
0.0
 63
   250
421
  3355443
1001
ACAD_NAV_VCDISPLAY
1070
     3
  0
ENDTAB
  0
TABLE
  2
LTYPE
  5
5
330
0
100
AcDbSymbolTable
 70
     2
  0
LTYPE
  5
14
330
5
100
AcDbSymbolTableRecord
100
AcDbLinetypeTableRecord
  2
BYBLOCK
 70
     0
  3

 72
    65
 73
     0
 40
0.0
  0
LTYPE
  5
15
330
5
100
AcDbSymbolTableRecord
100
AcDbLinetypeTableRecord
  2
BYLAYER
 70
     0
  3

 72
    65
 73
     0
 40
0.0
  0
LTYPE
  5
16
330
5
100
AcDbSymbolTableRecord
100
AcDbLinetypeTableRecord
  2
CONTINUOUS
 70
     0
  3
Solid line
 72
    65
 73
     0
 40
0.0
  0
ENDTAB
  0
TABLE
  2
LAYER
  5
2
102
{ACAD_XDICTIONARY
360
1008C
102
}
330
0
100
AcDbSymbolTable
 70
     4
  0
LAYER
  5
50
102
{ACAD_XDICTIONARY
360
10057
102
}
330
2
100
AcDbSymbolTableRecord
100
AcDbLayerTableRecord
  2
0
 70
     0
 62
     7
  6
CONTINUOUS
370
    -3
390
10002
347
10014
348
0
  0
LAYER
  5
51
102
{ACAD_XDICTIONARY
360
10059
102
}
330
2
100
AcDbSymbolTableRecord
100
AcDbLayerTableRecord
  2
LAYER_1
 70
     0
 62
     7
  6
CONTINUOUS
370
    -3
390
10002
347
10014
348
0
  0
LAYER
  5
10465
102
{ACAD_XDICTIONARY
360
10466
102
}
330
2
100
AcDbSymbolTableRecord
100
AcDbLayerTableRecord
  2
1
 70
     0
 62
     7
  6
CONTINUOUS
370
    -3
390
10002
347
10014
348
0
  0
LAYER
  5
11B80
330
2
100
AcDbSymbolTableRecord
100
AcDbLayerTableRecord
  2
Defpoints
 70
     0
 62
     7
  6
CONTINUOUS
290
     0
370
    -3
390
10002
347
10014
348
0
  0
ENDTAB
  0
TABLE
  2
STYLE
  5
3
330
0
100
AcDbSymbolTable
 70
     1
  0
STYLE
  5
11
330
3
100
AcDbSymbolTableRecord
100
AcDbTextStyleTableRecord
  2
STANDARD
 70
     0
 40
0.0
 41
1.0
 50
0.0
 71
     0
 42
10.0
  3
txt
  4

  0
ENDTAB
  0
TABLE
  2
VIEW
  5
6
330
0
100
AcDbSymbolTable
 70
     1
  0
ENDTAB
  0
TABLE
  2
UCS
  5
7
330
0
100
AcDbSymbolTable
 70
     0
  0
ENDTAB
  0
TABLE
  2
APPID
  5
9
330
0
100
AcDbSymbolTable
 70
     5
  0
APPID
  5
12
330
9
100
AcDbSymbolTableRecord
100
AcDbRegAppTableRecord
  2
ACAD
 70
     0
  0
APPID
  5
10065
330
9
100
AcDbSymbolTableRecord
100
AcDbRegAppTableRecord
  2
ACAD_NAV_VCDISPLAY
 70
     0
  0
APPID
  5
1006E
330
9
100
AcDbSymbolTableRecord
100
AcDbRegAppTableRecord
  2
ACAD_EXEMPT_FROM_CAD_STANDARDS
 70
     0
  0
APPID
  5
1011C
330
9
100
AcDbSymbolTableRecord
100
AcDbRegAppTableRecord
  2
ACAD_DSTYLE_DIMRADIAL_EXTENSION
 70
     0
  0
APPID
  5
11BE0
330
9
100
AcDbSymbolTableRecord
100
AcDbRegAppTableRecord
  2
Acad_TC
 70
     0
  0
ENDTAB
  0
TABLE
  2
DIMSTYLE
  5
A
330
0
100
AcDbSymbolTable
 70
     3
100
AcDbDimStyleTable
 71
     1
340
27
  0
DIMSTYLE
105
100DC
330
A
100
AcDbSymbolTableRecord
100
AcDbDimStyleTableRecord
  2
Standard
 70
     0
340
11
  0
DIMSTYLE
105
27
330
A
100
AcDbSymbolTableRecord
100
AcDbDimStyleTableRecord
  2
ISO-25
 70
     0
 41
2.5
 42
0.625
 43
3.75
 44
1.25
 73
     0
 74
     0
 77
     1
 78
     8
140
2.5
141
2.5
143
0.03937007874016
147
0.625
171
     3
172
     1
271
     2
272
     2
274
     3
283
     0
284
     8
340
11
  0
ENDTAB
  0
TABLE
  2
BLOCK_RECORD
  5
1
330
0
100
AcDbSymbolTable
 70
     2
  0
BLOCK_RECORD
  5
1F
102
{ACAD_XDICTIONARY
360
10135
102
}
330
1
100
AcDbSymbolTableRecord
100
AcDbBlockTableRecord
  2
*MODEL_SPACE
340
10052
 70
     0
280
     1
281
     0
  0
BLOCK_RECORD
  5
1B
330
1
100
AcDbSymbolTableRecord
100
AcDbBlockTableRecord
  2
*PAPER_SPACE
340
10053
 70
     0
280
     1
281
     0
  0
BLOCK_RECORD
  5
100DF
330
1
100
AcDbSymbolTableRecord
100
AcDbBlockTableRecord
  2
$AUDIT_BAD_BLOCK_RECORD1
340
0
 70
     0
280
     1
281
     0
  0
ENDTAB
  0
ENDSEC
  0
SECTION
  2
BLOCKS
  0
BLOCK
  5
20
330
1F
100
AcDbEntity
  8
0
100
AcDbBlockBegin
  2
*MODEL_SPACE
 70
     0
 10
0.0
 20
0.0
 30
0.0
  3
*MODEL_SPACE
  1

  0
ENDBLK
  5
21
330
1F
100
AcDbEntity
  8
0
100
AcDbBlockEnd
  0
BLOCK
  5
1C
330
1B
100
AcDbEntity
 67
     1
  8
0
100
AcDbBlockBegin
  2
*PAPER_SPACE
 70
     0
 10
0.0
 20
0.0
 30
0.0
  3
*PAPER_SPACE
  1

  0
ENDBLK
  5
1D
330
1B
100
AcDbEntity
 67
     1
  8
0
100
AcDbBlockEnd
  0
BLOCK
  5
100E0
330
100DF
100
AcDbEntity
  8
0
100
AcDbBlockBegin
  2
$AUDIT_BAD_BLOCK_RECORD1
 70
     0
 10
0.0
 20
0.0
 30
0.0
  3
$AUDIT_BAD_BLOCK_RECORD1
  1

  0
LWPOLYLINE
  5
100D8
330
100DF
100
AcDbEntity
  8
0
  6
ByBlock
 62
     0
100
AcDbPolyline
 90
        2
 70
     1
 43
0.5
 10
-0.0625
 20
0.0
 42
1.0
 10
0.0625
 20
0.0
 42
1.0
  0
ENDBLK
  5
100E1
330
100DF
100
AcDbEntity
  8
0
100
AcDbBlockEnd
  0
ENDSEC
  0
SECTION
  2
ENTITIES
  0
CIRCLE
  5
1044F
330
1F
100
AcDbEntity
  8
0
  6
Continuous
100
AcDbCircle
 10
1236.0
 20
1138.70507626382
 30
0.0
 40
4.0
  0
CIRCLE
  5
10450
330
1F
100
AcDbEntity
  8
0
  6
Continuous
100
AcDbCircle
 10
1299.52705391204
 20
1061.476108762908
 30
0.0
 40
4.0
  0
LINE
  5
10454
330
1F
100
AcDbEntity
  8
0
  6
Continuous
100
AcDbLine
 10
1331.072984870157
 20
1142.172381453479
 30
0.0
 11
1313.81617484836
 21
1054.111895018723
 31
0.0
  0
LINE
  5
10455
330
1F
100
AcDbEntity
  8
0
  6
Continuous
100
AcDbLine
 10
1303.9971718941
 20
1046.034973233767
 30
0.0
 11
1214.261759780758
 21
1046.08572855736
 31
0.0
  0
LINE
  5
10456
330
1F
100
AcDbEntity
  8
0
  6
Continuous
100
AcDbLine
 10
1204.454069041882
 20
1058.008803573248
 30
0.0
 11
1221.710879063679
 21
1146.069290008004
 31
0.0
  0
LINE
  5
10457
330
1F
100
AcDbEntity
  8
0
  6
Continuous
100
AcDbLine
 10
1231.529882017939
 20
1154.146211792961
 30
0.0
 11
1321.265294131282
 21
1154.095456469367
 31
0.0
  0
ARC
  5
10458
330
1F
100
AcDbEntity
  8
0
  6
Continuous
100
AcDbCircle
 10
1304.002828001792
 20
1056.034971634189
 30
0.0
 40
10.0
100
AcDbArc
 50
269.9675928883481
 51
348.9125125850281
  0
ARC
  5
10459
330
1F
100
AcDbEntity
  8
0
  6
Continuous
100
AcDbCircle
 10
1214.26741588845
 20
1056.085726957783
 30
0.0
 40
10.0
100
AcDbArc
 50
168.9125125850281
 51
269.9675928883481
  0
ARC
  5
1045A
330
1F
100
AcDbEntity
  8
0
  6
Continuous
100
AcDbCircle
 10
1231.524225910247
 20
1144.146213392539
 30
0.0
 40
10.0
100
AcDbArc
 50
89.96759288834812
 51
168.9125125850281
  0
ARC
  5
1045B
330
1F
100
AcDbEntity
  8
0
  6
Continuous
100
AcDbCircle
 10
1321.259638023589
 20
1144.095458068945
 30
0.0
 40
10.0
100
AcDbArc
 50
348.9125125850281
 51
89.96759288834812
  0
LWPOLYLINE
  5
114FF
330
1F
100
AcDbEntity
  8
0
  6
Continuous
100
AcDbPolyline
 90
        4
 70
     1
 43
0.0
 10
35.00000000000003
 20
665.0
 42
0.9999999999999998
 10
35.00000000000003
 20
585.0
 10
955.0
 20
585.0
 42
0.9999999999999998
 10
955.0
 20
665.0
  0
CIRCLE
  5
1150F
330
1F
100
AcDbEntity
  8
0
  6
Continuous
100
AcDbCircle
 10
35.0
 20
625.0
 30
0.0
 40
4.0
  0
CIRCLE
  5
11510
330
1F
100
AcDbEntity
  8
0
  6
Continuous
100
AcDbCircle
 10
955.0
 20
625.0
 30
0.0
 40
4.0
  0
CIRCLE
  5
11511
330
1F
100
AcDbEntity
  8
0
  6
Continuous
100
AcDbCircle
 10
1302.51656233143
 20
1128.677766773782
 30
0.0
 40
4.0
  0
CIRCLE
  5
11512
330
1F
100
AcDbEntity
  8
0
  6
Continuous
100
AcDbCircle
 10
1233.010491580609
 20
1071.503418252946
 30
0.0
 40
4.0
  0
LWPOLYLINE
  5
1151C
330
1F
100
AcDbEntity
  8
0
  6
Continuous
100
AcDbPolyline
 90
        4
 70
     1
 43
0.0
 10
35.00000000000004
 20
755.0
 42
0.9999999999999998
 10
35.00000000000003
 20
675.0
 10
955.0
 20
675.0
 42
0.9999999999999998
 10
955.0
 20
755.0
  0
CIRCLE
  5
1151F
330
1F
100
AcDbEntity
  8
0
  6
Continuous
100
AcDbCircle
 10
35.00000000000001
 20
715.0
 30
0.0
 40
4.0
  0
CIRCLE
  5
11520
330
1F
100
AcDbEntity
  8
0
  6
Continuous
100
AcDbCircle
 10
955.0
 20
715.0
 30
0.0
 40
4.0
  0
LWPOLYLINE
  5
11523
330
1F
100
AcDbEntity
  8
0
  6
Continuous
100
AcDbPolyline
 90
        4
 70
     1
 43
0.0
 10
1055.0
 20
905.0
 10
1115.0
 20
905.0
 10
1115.0
 20
805.0
 10
1055.0
 20
805.0
  0
CIRCLE
  5
11524
330
1F
100
AcDbEntity
  8
0
  6
Continuous
100
AcDbCircle
 10
1084.5
 20
840.0
 30
0.0
 40
25.0
  0
CIRCLE
  5
11525
330
1F
100
AcDbEntity
  8
0
  6
Continuous
100
AcDbCircle
 10
1070.0
 20
884.5
 30
0.0
 40
10.0
  0
LWPOLYLINE
  5
11545
330
1F
100
AcDbEntity
  8
0
  6
Continuous
100
AcDbPolyline
 90
        6
 70
     1
 43
0.0
 10
985.0
 20
845.0
 10
35.00000000000005
 20
845.0
 42
0.9999999999999998
 10
35.00000000000004
 20
765.0
 10
985.0
 20
765.0
 42
0.4142135623730951
 10
995.0
 20
775.0
 10
995.0
 20
835.0
 42
0.4142135623730951
  0
CIRCLE
  5
11548
330
1F
100
AcDbEntity
  8
0
  6
Continuous
100
AcDbCircle
 10
35.00000000000002
 20
805.0
 30
0.0
 40
4.0
  0
LWPOLYLINE
  5
1154B
330
1F
100
AcDbEntity
  8
0
  6
Continuous
100
AcDbPolyline
 90
        6
 70
     1
 43
0.0
 10
985.0
 20
935.0
 10
35.00000000000006
 20
935.0
 42
0.9999999999999998
 10
35.00000000000005
 20
855.0
 10
985.0
 20
855.0
 42
0.4142135623730951
 10
995.0
 20
865.0
 10
995.0
 20
925.0
 42
0.4142135623730951
  0
CIRCLE
  5
1154E
330
1F
100
AcDbEntity
  8
0
  6
Continuous
100
AcDbCircle
 10
35.00000000000002
 20
895.0
 30
0.0
 40
4.0
  0
LWPOLYLINE
  5
11576
330
1F
100
AcDbEntity
  8
0
  6
Continuous
100
AcDbPolyline
 90
        4
 70
     1
 43
0.0
 10
35.0
 20
965.0
 10
915.0
 20
965.0
 10
915.0
 20
1065.0
 10
35.00000000000006
 20
1065.0
  0
CIRCLE
  5
115D6
330
1F
100
AcDbEntity
  8
0
  6
Continuous
100
AcDbCircle
 10
1100.0
 20
884.5
 30
0.0
 40
10.0
  0
LWPOLYLINE
  5
116F9
330
1F
100
AcDbEntity
  8
1
  6
Continuous
 62
     7
100
AcDbPolyline
 90
      288
 70
     1
 43
0.0
 10
1044.97661216953
 20
935.3618869072191
 10
1044.643206735237
 20
931.6110757714264
 10
1044.640356180951
 20
931.5566986338506
 10
1044.638740681461
 20
931.3933604542267
 10
1044.649249193018
 20
931.1213209608297
 10
1044.682734185444
 20
930.7416558635434
 10
1044.749957317423
 20
930.25625317568
 10
1044.861535422237
 20
929.6678061471059
 10
1045.027887006752
 20
928.9798028322115
 10
1045.259179464778
 20
928.1965123280487
 10
1045.565277203639
 20
927.3229677296445
 10
1045.955690879744
 20
926.3649458610295
 10
1046.337571138038
 20
925.5472558757659
 42
0.0196208016814234
 10
1050.220956174908
 20
925.5299251077579
 10
1050.610119449235
 20
926.344174080487
 10
1051.009068322581
 20
927.2986731824719
 10
1051.322950621998
 20
928.1694509343981
 10
1051.56122506448
 20
928.9506458557278
 10
1051.733710741935
 20
929.6371370079279
 10
1051.850536539695
 20
930.2245647157265
 10
1051.922089417278
 20
930.7093480741121
 10
1051.958961746684
 20
931.0886991807919
 10
1051.971897906623
 20
931.3606340453256
 10
1051.971740333472
 20
931.5239801378167
 10
1051.969375231566
 20
931.5783805518197
 10
1051.669460645432
 20
935.3320180677533
 42
0.0364594023832393
 10
1057.397909615021
 20
936.2131275320773
 10
1058.239886587821
 20
932.5428662147762
 10
1058.253979009208
 20
932.4902696140291
 10
1058.302916851224
 20
932.334426557141
 10
1058.396975866218
 20
932.0789489329131
 10
1058.546144953695
 20
931.7282133998451
 10
1058.760075631075
 20
931.287341100722
 10
1059.048032846854
 20
930.7621742502901
 10
1059.418847321791
 20
930.1592496810833
 10
1059.880869598486
 20
929.4857694431483
 10
1060.441925973904
 20
928.749568563809
 10
1061.109276482999
 20
927.9590800836624
 10
1061.725146292671
 20
927.2994181844977
 42
0.0196208016814525
 10
1065.423820439111
 20
928.4829676167458
 10
1065.542319936835
 20
929.3776224734992
 10
1065.626786418869
 20
930.4086870459904
 10
1065.656221101412
 20
931.3338408659584
 10
1065.64143105599
 20
932.1504322384376
 10
1065.593337250983
 20
932.8566251277363
 10
1065.522920042538
 20
933.4514032339798
 10
1065.441164576691
 20
933.9345706611334
 10
1065.359006307045
 20
934.3067491795139
 10
1065.287276831747
 20
934.5693720976994
 10
1065.236650252231
 20
934.7246747705931
 10
1065.217590254224
 20
934.7756817821373
 10
1063.772416749602
 20
938.2529244974998
 42
0.0364594023832541
 10
1068.948217672016
 20
940.8610974781284
 10
1070.883158479407
 20
937.630656729269
 10
1070.912814412075
 20
937.5849891870942
 10
1071.007515218652
 20
937.4518962571727
 10
1071.175917585348
 20
937.2379884319901
 10
1071.426169058272
 20
936.9505149008356
 10
1071.765866255807
 20
936.5973286428289
 10
1072.202015323953
 20
936.1868489609118
 10
1072.74099478489
 20
935.7280215950494
 10
1073.388520920712
 20
935.2302765614433
 10
1074.149615825552
 20
934.7034838726525
 10
1075.028578250102
 20
934.1579073010676
 10
1075.818151983164
 20
933.7208457908264
 42
0.0196208016814298
 10
1078.97006324354
 20
935.9894213586279
 10
1078.806299408192
 20
936.876907048601
 10
1078.568015331142
 20
937.8836093073935
 10
1078.310121124998
 20
938.7725786935789
 10
1078.043714344367
 20
939.5446328641426
 10
1077.779748813622
 20
940.2014004102005
 10
1077.52898152596
 20
940.7453078897869
 10
1077.301920511304
 20
941.1795635915133
 10
1077.108773866469
 20
941.5081380950951
 10
1076.959400136744
 20
941.7357417058992
 10
1076.863260233202
 20
941.8677988515153
 10
1076.829371064497
 20
941.9104195389241
 10
1074.380402293136
 20
944.7708907093604
 42
0.0364594023832473
 10
1078.496911712159
 20
948.8508210627385
 10
1081.335410866394
 20
946.3764189306255
 10
1081.377727381028
 20
946.3421507042353
 10
1081.508921177399
 20
946.244835964574
 10
1081.735182498815
 20
946.0934367267496
 10
1082.062019999412
 20
945.8973651096835
 10
1082.494231788598
 20
945.6664372245201
 10
1083.035879399493
 20
945.4108253223644
 10
1083.690264781502
 20
945.1410083792548
 10
1084.459910406697
 20
944.867721301861
 10
1085.346542568813
 20
944.6019029423775
 10
1086.351077942613
 20
944.354643115437
 10
1087.237066620788
 20
944.1829646199284
 42
0.0196208016814336
 10
1089.533683960278
 20
947.3145023406116
 10
1089.103687137071
 20
948.1079455809929
 10
1088.56597740662
 20
948.9917424948894
 10
1088.045998793542
 20
949.7575089299584
 10
1087.554053029556
 20
950.4094518571745
 10
1087.100054558377
 20
950.9525050766141
 10
1086.693484040813
 20
951.3923004758154
 10
1086.343343791491
 20
951.7351364783923
 10
1086.058115310794
 20
951.9879438054516
 10
1085.845719068057
 20
952.1582486816409
 10
1085.713476684093
 20
952.2541336264703
 10
1085.668075652643
 20
952.2841959799045
 10
1082.455033740852
 20
954.247892757178
 42
0.0364594023832504
 10
1085.109299033145
 20
959.4002084737718
 10
1088.573504460019
 20
957.9240566792684
 10
1088.62433932133
 20
957.9045421814228
 10
1088.779183944624
 20
957.8525314767716
 10
1089.041156186166
 20
957.7784608385639
 10
1089.412586582666
 20
957.6929839915759
 10
1089.895005062182
 20
957.606919309625
 10
1090.48913097379
 20
957.5311962611662
 10
1091.194866476309
 20
957.4768013031263
 10
1092.011293314646
 20
957.4547234251831
 10
1092.936673000481
 20
957.4758995480989
 10
1093.968450402133
 20
957.551159980424
 10
1094.864127280557
 20
957.6616695869429
 42
0.0196208016814352
 10
1096.080641792497
 20
961.3496327297008
 10
1095.42650306645
 20
961.9713657678778
 10
1094.64200245746
 20
962.6457451371706
 10
1093.910838566999
 20
963.2133500670503
 10
1093.241508898624
 20
963.6813650348493
 10
1092.641918020565
 20
964.0575460948779
 10
1092.1193422281
 20
964.3501791757859
 10
1091.680396911286
 20
964.568036302602
 10
1091.331006745723
 20
964.7203299105539
 10
1091.076378814063
 20
964.8166654242636
 10
1090.920978755606
 20
964.8669922818363
 10
1090.868510030697
 20
964.881553588685
 10
1087.205909907383
 20
965.7562556503584
 42
0.0364594023832377
 10
1088.138113092781
 20
971.476612169531
 10
1091.888924228573
 20
971.1432067352378
 10
1091.943301366149
 20
971.1403561809513
 10
1092.106639545773
 20
971.138740681461
 10
1092.37867903917
 20
971.1492491930183
 10
1092.758344136457
 20
971.1827341854441
 10
1093.243746824319
 20
971.2499573174227
 10
1093.832193852894
 20
971.3615354222376
 10
1094.520197167788
 20
971.5278870067525
 10
1095.303487671951
 20
971.7591794647786
 10
1096.177032270355
 20
972.0652772036395
 10
1097.13505413897
 20
972.455690879744
 10
1097.952744124234
 20
972.8375711380389
 42
0.0196208016814412
 10
1097.970074892242
 20
976.7209561749094
 10
1097.155825919513
 20
977.1101194492354
 10
1096.201326817528
 20
977.5090683225808
 10
1095.330549065602
 20
977.8229506219986
 10
1094.549354144272
 20
978.0612250644798
 10
1093.862862992072
 20
978.2337107419348
 10
1093.275435284273
 20
978.3505365396951
 10
1092.790651925888
 20
978.4220894172779
 10
1092.411300819208
 20
978.4589617466842
 10
1092.139365954674
 20
978.471897906623
 10
1091.976019862183
 20
978.4717403334724
 10
1091.92161944818
 20
978.4693752315666
 10
1088.167981932246
 20
978.1694606454317
 42
0.0364594023832475
 10
1087.286872467922
 20
983.8979096150222
 10
1090.957133785223
 20
984.7398865878206
 10
1091.00973038597
 20
984.753979009208
 10
1091.165573442858
 20
984.8029168512248
 10
1091.421051067086
 20
984.8969758662187
 10
1091.771786600154
 20
985.0461449536958
 10
1092.212658899278
 20
985.2600756310748
 10
1092.73782574971
 20
985.5480328468539
 10
1093.340750318916
 20
985.9188473217914
 10
1094.014230556851
 20
986.3808695984857
 10
1094.750431436191
 20
986.9419259739041
 10
1095.540919916338
 20
987.6092764829989
 10
1096.200581815502
 20
988.225146292671
 42
0.0196208016814198
 10
1095.017032383255
 20
991.9238204391078
 10
1094.1223775265
 20
992.042319936835
 10
1093.091312954009
 20
992.1267864188699
 10
1092.166159134041
 20
992.1562211014119
 10
1091.349567761562
 20
992.1414310559903
 10
1090.643374872263
 20
992.0933372509832
 10
1090.04859676602
 20
992.0229200425383
 10
1089.565429338867
 20
991.9411645766917
 10
1089.193250820486
 20
991.8590063070455
 10
1088.9306279023
 20
991.7872768317472
 10
1088.775325229407
 20
991.7366502522311
 10
1088.724318217862
 20
991.7175902542238
 10
1085.2470755025
 20
990.2724167496028
 42
0.0364594023832423
 10
1082.638902521872
 20
995.4482176720146
 10
1085.86934327073
 20
997.3831584794075
 10
1085.915010812905
 20
997.4128144120754
 10
1086.048103742827
 20
997.5075152186526
 10
1086.26201156801
 20
997.6759175853478
 10
1086.549485099164
 20
997.9261690582719
 10
1086.902671357171
 20
998.2658662558071
 10
1087.313151039088
 20
998.7020153239537
 10
1087.77197840495
 20
999.2409947848905
 10
1088.269723438556
 20
999.888520920712
 10
1088.796516127347
 20
1000.649615825552
 10
1089.342092698932
 20
1001.528578250102
 10
1089.779154209173
 20
1002.318151983164
 42
0.0196208016814306
 10
1087.510578641373
 20
1005.470063243538
 10
1086.623092951399
 20
1005.306299408192
 10
1085.616390692606
 20
1005.068015331142
 10
1084.727421306421
 20
1004.810121124998
 10
1083.955367135857
 20
1004.543714344367
 10
1083.298599589799
 20
1004.279748813622
 10
1082.754692110213
 20
1004.028981525959
 10
1082.320436408486
 20
1003.801920511304
 10
1081.991861904905
 20
1003.608773866469
 10
1081.7642582941
 20
1003.459400136744
 10
1081.632201148485
 20
1003.363260233202
 10
1081.589580461076
 20
1003.329371064497
 10
1078.729109290639
 20
1000.880402293136
 42
0.0364594023832318
 10
1074.649178937263
 20
1004.996911712158
 10
1077.123581069374
 20
1007.835410866394
 10
1077.157849295764
 20
1007.877727381028
 10
1077.255164035426
 20
1008.008921177399
 10
1077.40656327325
 20
1008.235182498815
 10
1077.602634890316
 20
1008.562019999412
 10
1077.83356277548
 20
1008.994231788598
 10
1078.089174677635
 20
1009.535879399493
 10
1078.358991620745
 20
1010.190264781503
 10
1078.632278698139
 20
1010.959910406697
 10
1078.898097057622
 20
1011.846542568813
 10
1079.145356884563
 20
1012.851077942613
 10
1079.317035380071
 20
1013.737066620788
 42
0.019620801681445
 10
1076.185497659387
 20
1016.033683960279
 10
1075.392054419007
 20
1015.603687137071
 10
1074.50825750511
 20
1015.065977406621
 10
1073.742491070041
 20
1014.545998793542
 10
1073.090548142825
 20
1014.054053029556
 10
1072.547494923385
 20
1013.600054558377
 10
1072.107699524184
 20
1013.193484040812
 10
1071.764863521607
 20
1012.843343791491
 10
1071.512056194548
 20
1012.558115310794
 10
1071.341751318358
 20
1012.345719068057
 10
1071.24586637353
 20
1012.213476684093
 10
1071.215804020095
 20
1012.168075652643
 10
1069.252107242821
 20
1008.955033740853
 42
0.0364594023832471
 10
1064.099791526228
 20
1011.609299033145
 10
1065.575943320731
 20
1015.073504460019
 10
1065.595457818577
 20
1015.12433932133
 10
1065.647468523228
 20
1015.279183944624
 10
1065.721539161436
 20
1015.541156186166
 10
1065.807016008424
 20
1015.912586582666
 10
1065.893080690375
 20
1016.395005062182
 10
1065.968803738833
 20
1016.98913097379
 10
1066.023198696873
 20
1017.694866476309
 10
1066.045276574816
 20
1018.511293314646
 10
1066.024100451901
 20
1019.436673000481
 10
1065.948840019576
 20
1020.468450402133
 10
1065.838330413057
 20
1021.364127280556
 42
0.0196208016814185
 10
1062.150367270301
 20
1022.580641792496
 10
1061.528634232122
 20
1021.92650306645
 10
1060.854254862829
 20
1021.14200245746
 10
1060.286649932949
 20
1020.410838566999
 10
1059.81863496515
 20
1019.741508898624
 10
1059.442453905122
 20
1019.141918020565
 10
1059.149820824214
 20
1018.6193422281
 10
1058.931963697398
 20
1018.180396911286
 10
1058.779670089446
 20
1017.831006745723
 10
1058.683334575736
 20
1017.576378814063
 10
1058.633007718163
 20
1017.420978755606
 10
1058.618446411315
 20
1017.368510030697
 10
1057.743744349642
 20
1013.705909907383
 42
0.0364594023832379
 10
1052.023387830469
 20
1014.638113092781
 10
1052.356793264762
 20
1018.388924228573
 10
1052.359643819048
 20
1018.443301366149
 10
1052.361259318539
 20
1018.606639545773
 10
1052.350750806981
 20
1018.87867903917
 10
1052.317265814556
 20
1019.258344136456
 10
1052.250042682577
 20
1019.74374682432
 10
1052.138464577762
 20
1020.332193852894
 10
1051.972112993247
 20
1021.020197167788
 10
1051.740820535221
 20
1021.803487671951
 10
1051.43472279636
 20
1022.677032270355
 10
1051.044309120256
 20
1023.63505413897
 10
1050.662428861961
 20
1024.452744124234
 42
0.0196208016814235
 10
1046.779043825091
 20
1024.470074892242
 10
1046.389880550764
 20
1023.655825919513
 10
1045.990931677418
 20
1022.701326817528
 10
1045.677049378001
 20
1021.830549065602
 10
1045.43877493552
 20
1021.049354144272
 10
1045.266289258065
 20
1020.362862992072
 10
1045.149463460304
 20
1019.775435284273
 10
1045.077910582722
 20
1019.290651925888
 10
1045.041038253315
 20
1018.911300819208
 10
1045.028102093376
 20
1018.639365954674
 10
1045.028259666527
 20
1018.476019862183
 10
1045.030624768433
 20
1018.42161944818
 10
1045.330539354567
 20
1014.667981932246
 10
1045.215906560697
 20
988.9816836538505
 42
-0.9543615417243708
 10
1045.091085633954
 20
961.0124835023034
  0
CIRCLE
  5
11701
330
1F
100
AcDbEntity
  8
0
  6
Continuous
100
AcDbCircle
 10
1059.337571138038
 20
995.547255875766
 30
0.0
 40
1.5
  0
LINE
  5
11712
330
1F
100
AcDbEntity
  8
0
  6
Continuous
100
AcDbLine
 10
495.0
 20
935.0
 30
0.0
 11
494.9999999999999
 21
585.0
 31
0.0
  0
CIRCLE
  5
11793
330
1F
100
AcDbEntity
  8
0
  6
Continuous
100
AcDbCircle
 10
1086.110691998086
 20
1138.70507626382
 30
0.0
 40
4.0
  0
CIRCLE
  5
11794
330
1F
100
AcDbEntity
  8
0
  6
Continuous
100
AcDbCircle
 10
1149.637745910126
 20
1061.476108762908
 30
0.0
 40
4.0
  0
LINE
  5
11795
330
1F
100
AcDbEntity
  8
0
  6
Continuous
100
AcDbLine
 10
1181.183676868244
 20
1142.172381453479
 30
0.0
 11
1163.926866846447
 21
1054.111895018723
 31
0.0
  0
ARC
  5
11796
330
1F
100
AcDbEntity
  8
0
  6
Continuous
100
AcDbCircle
 10
1171.370330021676
 20
1144.095458068945
 30
0.0
 40
10.0
100
AcDbArc
 50
348.9125125850277
 51
89.96759288834812
  0
LINE
  5
11797
330
1F
100
AcDbEntity
  8
0
  6
Continuous
100
AcDbLine
 10
1154.107863892187
 20
1046.034973233767
 30
0.0
 11
1064.372451778844
 21
1046.08572855736
 31
0.0
  0
ARC
  5
11798
330
1F
100
AcDbEntity
  8
0
  6
Continuous
100
AcDbCircle
 10
1064.378107886537
 20
1056.085726957783
 30
0.0
 40
10.0
100
AcDbArc
 50
168.9125125850277
 51
269.9675928883481
  0
ARC
  5
11799
330
1F
100
AcDbEntity
  8
0
  6
Continuous
100
AcDbCircle
 10
1154.113519999879
 20
1056.034971634189
 30
0.0
 40
10.0
100
AcDbArc
 50
269.9675928883481
 51
348.9125125850277
  0
LINE
  5
1179A
330
1F
100
AcDbEntity
  8
0
  6
Continuous
100
AcDbLine
 10
1054.564761039969
 20
1058.008803573248
 30
0.0
 11
1071.821571061766
 21
1146.069290008004
 31
0.0
  0
LINE
  5
1179B
330
1F
100
AcDbEntity
  8
0
  6
Continuous
100
AcDbLine
 10
1081.640574016026
 20
1154.146211792961
 30
0.0
 11
1171.375986129368
 21
1154.095456469367
 31
0.0
  0
ARC
  5
1179C
330
1F
100
AcDbEntity
  8
0
  6
Continuous
100
AcDbCircle
 10
1081.634917908334
 20
1144.146213392539
 30
0.0
 40
10.0
100
AcDbArc
 50
89.96759288834812
 51
168.9125125850277
  0
CIRCLE
  5
1179D
330
1F
100
AcDbEntity
  8
0
  6
Continuous
100
AcDbCircle
 10
1152.627254329517
 20
1128.677766773782
 30
0.0
 40
4.0
  0
CIRCLE
  5
1179E
330
1F
100
AcDbEntity
  8
0
  6
Continuous
100
AcDbCircle
 10
1083.121183578696
 20
1071.503418252946
 30
0.0
 40
4.0
  0
LINE
  5
1179F
330
1F
100
AcDbEntity
  8
0
  6
Continuous
100
AcDbLine
 10
495.0
 20
945.0
 30
0.0
 11
494.9999999999999
 21
1431.0
 31
0.0
  0
CIRCLE
  5
117C0
330
1F
100
AcDbEntity
  8
0
  6
Continuous
100
AcDbCircle
 10
125.0
 20
715.0
 30
0.0
 40
25.0
  0
LWPOLYLINE
  5
117E8
330
1F
100
AcDbEntity
  8
0
  6
Continuous
100
AcDbPolyline
 90
        4
 70
     1
 43
0.0
 10
35.00000000000002
 20
1079.0
 10
915.0
 20
1079.0
 10
915.0
 20
1179.0
 10
35.00000000000008
 20
1179.0
  0
LWPOLYLINE
  5
117E9
330
1F
100
AcDbEntity
  8
0
  6
Continuous
100
AcDbPolyline
 90
        4
 70
     1
 43
0.0
 10
35.00000000000004
 20
1193.0
 10
985.0
 20
1193.0
 10
985.0
 20
1293.0
 10
35.0000000000001
 20
1293.0
  0
LWPOLYLINE
  5
117EA
330
1F
100
AcDbEntity
  8
0
  6
Continuous
100
AcDbPolyline
 90
        4
 70
     1
 43
0.0
 10
35.00000000000004
 20
1307.0
 10
985.0
 20
1307.0
 10
985.0
 20
1407.0
 10
35.0000000000001
 20
1407.0
  0
CIRCLE
  5
11A9B
330
1F
100
AcDbEntity
  8
0
  6
Continuous
100
AcDbCircle
 10
500.0
 20
670.0
 30
0.0
 40
1.587499999999999
  0
CIRCLE
  5
11AD4
330
1F
100
AcDbEntity
  8
0
  6
Continuous
100
AcDbCircle
 10
1059.337571138038
 20
955.547255875766
 30
0.0
 40
1.5
  0
LWPOLYLINE
  5
11AF3
330
1F
100
AcDbEntity
  8
1
  6
Continuous
 62
     7
100
AcDbPolyline
 90
      290
 70
     0
 43
0.0
 10
1118.829056608088
 20
936.3633418691449
 10
1119.730756735828
 20
932.7072947907234
 10
1119.741869315073
 20
932.6539889811602
 10
1119.768383617992
 20
932.4928090739069
 10
1119.799498517922
 20
932.2223506153862
 10
1119.824324467212
 20
931.8420211489273
 10
1119.831937747189
 20
931.352044867026
 10
1119.811434928277
 20
930.7534638672201
 10
1119.751987336237
 20
930.0481360038991
 10
1119.642895320361
 20
929.2387293402725
 10
1119.473642119962
 20
928.3287132166286
 10
1119.233947126709
 20
927.3223459628672
 10
1118.981277635002
 20
926.4559698484482
 42
-0.0196208016814234
 10
1115.145990286569
 20
925.8464202975014
 10
1114.637166009908
 20
926.5917707514189
 10
1114.097275108255
 20
927.4742369284174
 10
1113.654227036821
 20
928.2869388402746
 10
1113.299567975825
 20
929.0226406586112
 10
1113.024374976815
 20
929.6747834529995
 10
1112.819302791045
 20
930.2375133860357
 10
1112.674632312597
 20
930.7057069053456
 10
1112.580320452502
 20
931.0749928431503
 10
1112.526051255194
 20
931.3417713449201
 10
1112.501288064514
 20
931.5032295597895
 10
1112.49532654292
 20
931.5573540367939
 10
1112.219102446733
 20
935.3128092167533
 42
-0.0361246714984782
 10
1106.476362324308
 20
935.3059029371317
 10
1106.591085633954
 20
961.0124835023034
 42
0.9543615417243705
 10
1106.715906560697
 20
988.9816836538505
 10
1106.830761317136
 20
1014.71771810775
 42
-0.0336232324523342
 10
1112.176712587075
 20
1014.690285915464
 10
1112.448925484313
 20
1018.44603397658
 10
1112.454829194462
 20
1018.50016478996
 10
1112.479419924389
 20
1018.661649361245
 10
1112.533404156012
 20
1018.928485673465
 10
1112.627321543764
 20
1019.297872131112
 10
1112.77149188218
 20
1019.76621989974
 10
1112.975962923159
 20
1020.329168540659
 10
1113.250459239319
 20
1020.98160488498
 10
1113.604332326314
 20
1021.717685079899
 10
1114.046512132818
 20
1022.530859728948
 10
1114.58546020207
 20
1023.413902037042
 10
1115.093488111505
 20
1024.159795519325
 42
-0.0196208016814185
 10
1118.92942430625
 20
1023.554342622781
 10
1119.183018993193
 20
1022.68823686802
 10
1119.423788707645
 20
1021.682126196256
 10
1119.594013760888
 20
1020.772291363782
 10
1119.703970207254
 20
1019.963001678345
 10
1119.764171095975
 20
1019.25773771076
 10
1119.785313222012
 20
1018.659178950555
 10
1119.778223269133
 20
1018.169194816703
 10
1119.753803547674
 20
1017.788839051637
 10
1119.722977530628
 20
1017.518347514883
 10
1119.696635392212
 20
1017.357139380767
 10
1119.685579752965
 20
1017.303821732736
 10
1118.78778500738
 20
1013.646813672204
 42
-0.0364594023832471
 10
1124.300889110928
 20
1011.858751976189
 10
1125.72036893814
 20
1015.346562231942
 10
1125.742711041402
 20
1015.396219347973
 10
1125.815999692196
 20
1015.542201348323
 10
1125.94979870265
 20
1015.779295716844
 10
1126.15326613917
 20
1016.101581045538
 10
1126.43510769876
 20
1016.502455158129
 10
1126.803531911681
 20
1016.974666104895
 10
1127.266207340007
 20
1017.510345915042
 10
1127.830221934789
 20
1018.101046983202
 10
1128.50204470709
 20
1018.737780957287
 10
1129.28748986025
 20
1019.41105998608
 10
1130.001146875993
 20
1019.963457585236
 42
-0.019620801681445
 10
1133.462243755775
 20
1018.202268189153
 10
1133.435785238143
 20
1017.300187599338
 10
1133.353865548202
 20
1016.268917555347
 10
1133.234604769018
 20
1015.351010774848
 10
1133.08909529767
 20
1014.547352135376
 10
1132.928411193671
 20
1013.858003145604
 10
1132.763553721371
 20
1013.282206660083
 10
1132.60539735115
 20
1012.818394972632
 10
1132.464636420617
 20
1012.464201252683
 10
1132.351732654542
 20
1012.216474277187
 10
1132.276863739075
 20
1012.071296399194
 10
1132.249873141986
 20
1012.024004683012
 10
1130.265941959633
 20
1008.823417170744
 42
-0.0364594023832318
 10
1134.956674091265
 20
1005.419226583458
 10
1137.384472272867
 20
1008.297687865012
 10
1137.421065768508
 20
1008.338010499196
 10
1137.535878336397
 20
1008.454200193301
 10
1137.736394946307
 20
1008.638344169399
 10
1138.029495621267
 20
1008.881980835673
 10
1138.421419786474
 20
1009.176140941032
 10
1138.917733242413
 20
1009.511390896087
 10
1139.523297888332
 20
1009.877878099943
 10
1140.242244312641
 20
1010.265378105136
 10
1141.077947356922
 20
1010.663343446488
 10
1142.03300474988
 20
1011.06095395363
 10
1142.882433150896
 20
1011.365783143872
 42
-0.0196208016814306
 10
1145.629894438236
 20
1008.621254737268
 10
1145.325972660083
 20
1007.771501245695
 10
1144.929382435767
 20
1006.816019726663
 10
1144.53230990016
 20
1005.979892109249
 10
1144.145577991979
 20
1005.26053222279
 10
1143.779737774911
 20
1004.654576492929
 10
1143.445018102293
 20
1004.157905253904
 10
1143.151276762189
 20
1003.765667132386
 10
1142.907953283201
 20
1003.472306406678
 10
1142.724023575367
 20
1003.271593234815
 10
1142.607956573937
 20
1003.156656635159
 10
1142.567673046703
 20
1003.120020093506
 10
1139.691806434569
 20
1000.68914893501
 42
-0.0364594023832423
 10
1143.101005050991
 20
996.0020553495242
 10
1146.299471785504
 20
997.9894038112215
 10
1146.346734647208
 20
998.0164449031798
 10
1146.491832478101
 20
998.0914688342389
 10
1146.739438724607
 20
998.2046371225267
 10
1147.09348190179
 20
998.3457762719696
 10
1147.557124404627
 20
998.5044279294504
 10
1148.132744484499
 20
998.6699002913711
 10
1148.82192146125
 20
998.8313205679556
 10
1149.625424229881
 20
998.9776883098024
 10
1150.543203109481
 20
999.0979293980206
 10
1151.574385070339
 20
999.1809504967582
 10
1152.476436886418
 20
999.2083724730761
 42
-0.0196208016814198
 10
1154.241321927827
 20
995.7491586186426
 10
1153.689686870345
 20
995.0349120176483
 10
1153.017247126019
 20
994.2487482118899
 10
1152.381231060339
 20
993.5762457543958
 10
1151.791132729017
 20
993.0116005787132
 10
1151.255947388286
 20
992.5483532775418
 10
1150.784130209035
 20
992.179424926401
 10
1150.383557348032
 20
991.8971553710351
 10
1150.061489518047
 20
991.6933438313627
 10
1149.824538189771
 20
991.5592916668478
 10
1149.678634549165
 20
991.4858471407116
 10
1149.629001324104
 20
991.4634520135464
 10
1146.142709143527
 20
990.0402478146892
 42
-0.0364594023832475
 10
1147.936658130879
 20
984.5290566080532
 10
1151.5927052093
 20
985.4307567357935
 10
1151.646011018864
 20
985.4418693150389
 10
1151.807190926117
 20
985.4683836179578
 10
1152.077649384637
 20
985.4994985178882
 10
1152.457978851096
 20
985.5243244671781
 10
1152.947955132997
 20
985.531937747155
 10
1153.546536132804
 20
985.5114349282429
 10
1154.251863996125
 20
985.4519873362026
 10
1155.061270659751
 20
985.3428953203268
 10
1155.971286783395
 20
985.173642119928
 10
1156.977654037157
 20
984.9339471266747
 10
1157.844030151575
 20
984.6812776349686
 42
-0.0196208016814412
 10
1158.453579702522
 20
980.8459902865354
 10
1157.708229248605
 20
980.3371660098733
 10
1156.825763071606
 20
979.7972751082212
 10
1156.013061159749
 20
979.3542270367872
 10
1155.277359341412
 20
978.9995679757904
 10
1154.625216547023
 20
978.7243749767814
 10
1154.062486613987
 20
978.5193027910102
 10
1153.594293094678
 20
978.3746323125624
 10
1153.225007156873
 20
978.2803204524677
 10
1152.958228655103
 20
978.2260512551594
 10
1152.796770440234
 20
978.2012880644797
 10
1152.74264596323
 20
978.1953265428859
 10
1148.98719078327
 20
977.9191024466998
 42
-0.0364594023832377
 10
1148.990285915492
 20
972.1232874129478
 10
1152.746033976608
 20
971.8510745157098
 10
1152.800164789988
 20
971.8451708055601
 10
1152.961649361273
 20
971.8205800756331
 10
1153.228485673493
 20
971.7665958440106
 10
1153.59787213114
 20
971.6726784562583
 10
1154.066219899768
 20
971.5285081178429
 10
1154.629168540687
 20
971.3240370768641
 10
1155.281604885008
 20
971.0495407607037
 10
1156.017685079927
 20
970.6956676737084
 10
1156.830859728977
 20
970.2534878672043
 10
1157.71390203707
 20
969.7145397979523
 10
1158.459795519354
 20
969.2065118885196
 42
-0.0196208016814352
 10
1157.854342622809
 20
965.3705756937725
 10
1156.988236868048
 20
965.1169810068294
 10
1155.982126196285
 20
964.8762112923785
 10
1155.072291363809
 20
964.7059862391339
 10
1154.263001678373
 20
964.5960297927686
 10
1153.557737710788
 20
964.5358289040474
 10
1152.959178950583
 20
964.5146867780104
 10
1152.469194816731
 20
964.5217767308899
 10
1152.088839051665
 20
964.5461964523486
 10
1151.818347514911
 20
964.5770224693951
 10
1151.657139380794
 20
964.6033646078109
 10
1151.603821732764
 20
964.6144202470578
 10
1147.946813672231
 20
965.512214992643
 42
-0.0364594023832504
 10
1146.158751976216
 20
959.9991108890936
 10
1149.64656223197
 20
958.5796310618825
 10
1149.696219348001
 20
958.5572889586206
 10
1149.842201348351
 20
958.4840003078262
 10
1150.079295716873
 20
958.3502012973722
 10
1150.401581045566
 20
958.1467338608524
 10
1150.802455158157
 20
957.864892301262
 10
1151.274666104922
 20
957.4964680883413
 10
1151.81034591507
 20
957.0337926600151
 10
1152.401046983229
 20
956.4697780652338
 10
1153.037780957316
 20
955.7979552929328
 10
1153.711059986108
 20
955.012510139773
 10
1154.263457585264
 20
954.2988531240286
 42
-0.0196208016814336
 10
1152.502268189181
 20
950.8377562442474
 10
1151.600187599366
 20
950.8642147618793
 10
1150.568917555375
 20
950.9461344518209
 10
1149.651010774876
 20
951.065395231005
 10
1148.847352135403
 20
951.210904702353
 10
1148.158003145632
 20
951.3715888063522
 10
1147.582206660111
 20
951.5364462786518
 10
1147.118394972659
 20
951.6946026488723
 10
1146.764201252712
 20
951.8353635794053
 10
1146.516474277214
 20
951.9482673454808
 10
1146.371296399223
 20
952.0231362609475
 10
1146.32400468304
 20
952.0501268580369
 10
1143.123417170773
 20
954.0340580403917
 42
-0.0364594023832473
 10
1139.719226583485
 20
949.3433259087574
 10
1142.59768786504
 20
946.9155277271553
 10
1142.638010499224
 20
946.8789342315151
 10
1142.754200193328
 20
946.7641216636261
 10
1142.938344169427
 20
946.563605053716
 10
1143.1819808357
 20
946.2705043787559
 10
1143.476140941059
 20
945.8785802135491
 10
1143.811390896116
 20
945.3822667576094
 10
1144.177878099971
 20
944.7767021116909
 10
1144.565378105164
 20
944.0577556873819
 10
1144.963343446515
 20
943.2220526431011
 10
1145.360953953658
 20
942.2669952501431
 10
1145.665783143901
 20
941.4175668491283
 42
-0.0196208016814298
 10
1142.921254737295
 20
938.670105561786
 10
1142.071501245723
 20
938.9740273399398
 10
1141.116019726692
 20
939.3706175642549
 10
1140.279892109277
 20
939.7676900998629
 10
1139.560532222819
 20
940.1544220080442
 10
1138.954576492957
 20
940.520262225112
 10
1138.457905253932
 20
940.8549818977297
 10
1138.065667132415
 20
941.1487232378336
 10
1137.772306406706
 20
941.3920467168219
 10
1137.571593234843
 20
941.5759764246558
 10
1137.456656635187
 20
941.6920434260854
 10
1137.420020093534
 20
941.7323269533193
 10
1134.989148935039
 20
944.6081935654552
 42
-0.0364594023832541
 10
1130.302055349552
 20
941.1989949490317
 10
1132.28940381125
 20
938.0005282145182
 10
1132.316444903208
 20
937.9532653528146
 10
1132.391468834267
 20
937.8081675219217
 10
1132.504637122554
 20
937.5605612754155
 10
1132.645776271997
 20
937.2065180982328
 10
1132.804427929478
 20
936.7428755953959
 10
1132.969900291399
 20
936.1672555155239
 10
1133.131320567984
 20
935.4780785387729
 10
1133.27768830983
 20
934.6745757701418
 10
1133.397929398048
 20
933.7567968905409
 10
1133.480950496786
 20
932.7256149296832
 10
1133.508372473107
 20
931.823563113606
 42
-0.0196208016814525
 10
1130.04915861867
 20
930.0586780721959
 10
1129.334912017676
 20
930.6103131296781
 10
1128.548748211917
 20
931.2827528740042
 10
1127.876245754424
 20
931.918768939683
 10
1127.311600578741
 20
932.5088672710053
 10
1126.848353277569
 20
933.0440526117367
 10
1126.479424926429
 20
933.515869790988
 10
1126.197155371063
 20
933.9164426519898
 10
1125.99334383139
 20
934.2385104819753
 10
1125.859291666875
 20
934.4754618102511
 10
1125.785847140739
 20
934.6213654508575
 10
1125.763452013574
 20
934.6709986759185
 10
1124.340247814716
 20
938.1572908564956
 42
-0.0364594023832393
 10
1118.829056608082
 20
936.3633418691438
 10
1119.730756735821
 20
932.7072947907224
 10
1119.741869315067
 20
932.653988981159
 10
1119.768383617985
 20
932.4928090739057
 10
1119.799498517916
 20
932.222350615385
 10
1119.824324467205
 20
931.8420211489263
 10
1119.831937747183
 20
931.3520448670248
 10
1119.811434928271
 20
930.7534638672191
 10
1119.751987336231
 20
930.0481360038981
 10
1119.642895320355
 20
929.2387293402715
 10
1119.473642119956
 20
928.3287132166273
 10
1119.233947126702
 20
927.3223459628663
 10
1118.981277634996
 20
926.4559698484472
 42
-0.0196208016814234
 10
1115.145990286563
 20
925.8464202975007
 10
1114.637166009901
 20
926.591770751418
 10
1114.097275108249
 20
927.4742369284169
 10
1113.654227036815
 20
928.2869388402739
 10
1113.299567975818
 20
929.0226406586105
 10
1113.024374976809
 20
929.6747834529989
 10
1112.819302791038
 20
930.2375133860349
 10
1112.67463231259
 20
930.7057069053449
 10
1112.580320452496
 20
931.07499284315
 10
1112.526051255187
 20
931.3417713449196
 10
1112.501288064507
 20
931.5032295597889
 10
1112.495326542913
 20
931.5573540367932
 10
1112.219102446727
 20
935.3128092167528
  0
CIRCLE
  5
11AFA
330
1F
100
AcDbEntity
  8
0
  6
Continuous
100
AcDbCircle
 10
1120.837571138038
 20
995.547255875766
 30
0.0
 40
1.5
  0
CIRCLE
  5
11AFB
330
1F
100
AcDbEntity
  8
0
  6
Continuous
100
AcDbCircle
 10
1120.837571138038
 20
955.547255875766
 30
0.0
 40
1.5
  0
LWPOLYLINE
  5
11B17
330
1F
100
AcDbEntity
  8
0
  6
Continuous
100
AcDbPolyline
 90
        3
 70
     0
 43
0.0
 10
1435.5
 20
1292.0
 10
1435.5
 20
1271.0
 10
1460.0
 20
1271.0
  0
LWPOLYLINE
  5
11B1A
330
1F
100
AcDbEntity
  8
0
  6
Continuous
100
AcDbPolyline
 90
        4
 70
     1
 43
0.0
 10
1490.0
 20
1271.0
 10
1514.5
 20
1271.0
 10
1514.5
 20
1292.0
 10
1490.0
 20
1292.0
  0
CIRCLE
  5
11B6F
330
1F
100
AcDbEntity
  8
0
  6
Continuous
100
AcDbCircle
 10
1535.0
 20
1310.5
 30
0.0
 40
3.0
  0
CIRCLE
  5
11B70
330
1F
100
AcDbEntity
  8
0
  6
Continuous
100
AcDbCircle
 10
1415.0
 20
1310.5
 30
0.0
 40
3.0
  0
CIRCLE
  5
11BD7
330
1F
100
AcDbEntity
  8
0
  6
Continuous
100
AcDbCircle
 10
1689.0
 20
1235.0
 30
0.0
 40
11.0
  0
LWPOLYLINE
  5
11BEB
330
1F
100
AcDbEntity
  8
0
  6
Continuous
100
AcDbPolyline
 90
        4
 70
     1
 43
0.0
 10
1460.0
 20
1058.0
 10
1435.5
 20
1058.0
 10
1435.5
 20
1037.0
 10
1460.0
 20
1037.0
  0
LWPOLYLINE
  5
11BEC
330
1F
100
AcDbEntity
  8
0
  6
Continuous
100
AcDbPolyline
 90
        4
 70
     1
 43
0.0
 10
1490.0
 20
1037.0
 10
1514.5
 20
1037.0
 10
1514.5
 20
1058.0
 10
1490.0
 20
1058.0
  0
LWPOLYLINE
  5
11BED
330
1F
100
AcDbEntity
  8
0
  6
Continuous
100
AcDbPolyline
 90
        4
 70
     0
 43
0.0
 10
1395.0
 20
1535.0
 10
1395.0
 20
835.0
 10
1555.0
 20
835.0
 10
1555.0
 20
1535.0
  0
LWPOLYLINE
  5
11BEE
330
1F
100
AcDbEntity
  8
0
  6
Continuous
100
AcDbPolyline
 90
        4
 70
     1
 43
0.0
 10
1490.0
 20
962.0
 10
1514.5
 20
962.0
 10
1514.5
 20
983.0
 10
1490.0
 20
983.0
  0
LWPOLYLINE
  5
11BEF
330
1F
100
AcDbEntity
  8
0
  6
Continuous
100
AcDbPolyline
 90
        4
 70
     1
 43
0.0
 10
1435.5
 20
962.0
 10
1435.5
 20
983.0
 10
1460.0
 20
983.0
 10
1460.0
 20
962.0
  0
LWPOLYLINE
  5
11BF9
330
1F
100
AcDbEntity
  8
0
  6
Continuous
100
AcDbPolyline
 90
        4
 70
     1
 43
0.0
 10
1490.0
 20
1329.0
 10
1514.5
 20
1329.0
 10
1514.5
 20
1350.0
 10
1490.0
 20
1350.0
  0
LWPOLYLINE
  5
11BFA
330
1F
100
AcDbEntity
  8
0
  6
Continuous
100
AcDbPolyline
 90
        4
 70
     1
 43
0.0
 10
1435.5
 20
1329.0
 10
1435.5
 20
1350.0
 10
1460.0
 20
1350.0
 10
1460.0
 20
1329.0
  0
LWPOLYLINE
  5
11BFD
330
1F
100
AcDbEntity
  8
0
  6
Continuous
100
AcDbPolyline
 90
        3
 70
     0
 43
0.0
 10
1435.5
 20
1292.0
 10
1460.0
 20
1292.0
 10
1460.0
 20
1271.0
  0
CIRCLE
  5
11C04
330
1F
100
AcDbEntity
  8
0
  6
Continuous
100
AcDbCircle
 10
1535.0
 20
1515.0
 30
0.0
 40
4.0
  0
CIRCLE
  5
11C05
330
1F
100
AcDbEntity
  8
0
  6
Continuous
100
AcDbCircle
 10
1415.0
 20
1515.0
 30
0.0
 40
4.0
  0
LWPOLYLINE
  5
11C06
330
1F
100
AcDbEntity
  8
0
  6
Continuous
100
AcDbPolyline
 90
        2
 70
     0
 43
0.0
 10
1555.0
 20
1535.0
 10
1395.0
 20
1535.0
  0
CIRCLE
  5
11C18
330
1F
100
AcDbEntity
  8
0
  6
Continuous
100
AcDbCircle
 10
1535.0
 20
1085.0
 30
0.0
 40
3.0
  0
CIRCLE
  5
11C19
330
1F
100
AcDbEntity
  8
0
  6
Continuous
100
AcDbCircle
 10
1415.0
 20
1085.0
 30
0.0
 40
3.0
  0
CIRCLE
  5
11C1A
330
1F
100
AcDbEntity
  8
0
  6
Continuous
100
AcDbCircle
 10
1535.0
 20
880.4999999999999
 30
0.0
 40
3.0
  0
CIRCLE
  5
11C1B
330
1F
100
AcDbEntity
  8
0
  6
Continuous
100
AcDbCircle
 10
1415.0
 20
880.4999999999999
 30
0.0
 40
3.0
  0
CIRCLE
  5
11C49
330
1F
100
AcDbEntity
  8
0
  6
Continuous
100
AcDbCircle
 10
1689.0
 20
1355.0
 30
0.0
 40
4.0
  0
CIRCLE
  5
11C4B
330
1F
100
AcDbEntity
  8
0
  6
Continuous
100
AcDbCircle
 10
1689.0
 20
1235.0
 30
0.0
 40
4.0
  0
CIRCLE
  5
11C4D
330
1F
100
AcDbEntity
  8
0
  6
Continuous
100
AcDbCircle
 10
1604.0
 20
1235.0
 30
0.0
 40
1.587499999999999
  0
CIRCLE
  5
11C4E
330
1F
100
AcDbEntity
  8
0
  6
Continuous
100
AcDbCircle
 10
1624.0
 20
1235.0
 30
0.0
 40
1.587499999999999
  0
CIRCLE
  5
11C4F
330
1F
100
AcDbEntity
  8
0
  6
Continuous
100
AcDbCircle
 10
1604.0
 20
1355.0
 30
0.0
 40
1.587499999999999
  0
CIRCLE
  5
11C50
330
1F
100
AcDbEntity
  8
0
  6
Continuous
100
AcDbCircle
 10
1624.0
 20
1355.0
 30
0.0
 40
1.587499999999999
  0
CIRCLE
  5
11C51
330
1F
100
AcDbEntity
  8
0
  6
Continuous
100
AcDbCircle
 10
1689.0
 20
1355.0
 30
0.0
 40
11.0
  0
LWPOLYLINE
  5
11CAB
330
1F
100
AcDbEntity
  8
0
  6
Continuous
100
AcDbPolyline
 90
        2
 70
     0
 43
0.0
 10
1461.771180382775
 20
696.0425337107483
 10
1447.923558049832
 20
724.8911620269126
  0
LINE
  5
11CAC
330
1F
100
AcDbEntity
  8
0
  6
Continuous
100
AcDbLine
 10
1468.983337461816
 20
699.5044392939843
 30
0.0
 11
1455.135715128873
 21
728.3530676101486
 31
0.0
  0
LWPOLYLINE
  5
11CAE
330
1F
100
AcDbEntity
  8
0
  6
Continuous
100
AcDbPolyline
 90
        2
 70
     0
 43
0.0
 10
1459.355186719754
 20
684.8996896114962
 10
1455.460542938614
 20
693.0133663254172
  0
LWPOLYLINE
  5
11CAF
330
1F
100
AcDbEntity
  8
0
  6
Continuous
100
AcDbPolyline
 90
        2
 70
     0
 43
0.0
 10
1457.551708791894
 20
739.495911709401
 10
1461.446352573034
 20
731.3822349954798
  0
LWPOLYLINE
  5
11CB0
330
1F
100
AcDbEntity
  8
0
  6
Continuous
100
AcDbPolyline
 90
        3
 70
     0
 43
0.0
 10
1461.446352573034
 20
731.3822349954798
 10
1441.612920605671
 20
721.8619946415815
 10
1437.718276824531
 20
729.9756713555028
  0
LINE
  5
11CB1
330
1F
100
AcDbEntity
  8
0
  6
Continuous
100
AcDbLine
 10
1455.460542938614
 20
693.0133663254172
 30
0.0
 11
1475.293974905977
 21
702.5336066793154
 31
0.0
  0
LWPOLYLINE
  5
11CB2
330
1F
100
AcDbEntity
  8
0
  6
Continuous
100
AcDbPolyline
 90
        2
 70
     0
 43
0.0
 10
1475.293974905977
 20
702.5336066793154
 10
1479.188618687117
 20
694.4199299653941
  0
LWPOLYLINE
  5
11CFF
330
1F
100
AcDbEntity
  8
0
  6
Continuous
100
AcDbPolyline
 90
        2
 70
     0
 43
0.0
 10
1537.789585990685
 20
684.270651808684
 10
1525.703636753961
 20
654.6407710960092
  0
LINE
  5
11D00
330
1F
100
AcDbEntity
  8
0
  6
Continuous
100
AcDbLine
 10
1545.197056168854
 20
681.2491644995026
 30
0.0
 11
1533.111106932129
 21
651.6192837868279
 31
0.0
  0
LWPOLYLINE
  5
11D02
330
1F
100
AcDbEntity
  8
0
  6
Continuous
100
AcDbPolyline
 90
       15
 70
     1
 43
0.0
 10
1582.527617400863
 20
675.7420458711544
 42
0.116132894699231
 10
1587.055410330592
 20
675.0296185325461
 10
1957.850797438071
 20
702.9527379451145
 42
-0.116132894699231
 10
1962.378590367801
 20
702.2403106065056
 10
2052.791938485519
 20
665.3609472952129
 10
2047.126649780805
 20
651.4719407111464
 42
-0.4142135623730951
 10
2040.608551351211
 20
648.7307014180291
 10
2010.381775950177
 20
661.060122404543
 42
0.1161783963719004
 10
2005.852192265871
 20
661.77241472687
 10
1568.172027883724
 20
628.7334228729569
 42
-0.1161783963719004
 10
1563.642444199419
 20
629.4457151952839
 10
1493.600516590728
 20
658.0156304686454
 42
-0.4142135623730921
 10
1490.859277297611
 20
664.5337288982387
 10
1505.966713843517
 20
701.5710797890835
 42
-0.4142135623731304
 10
1512.48481227311
 20
704.3123190822005
  0
LWPOLYLINE
  5
11D03
330
1F
100
AcDbEntity
  8
0
  6
Continuous
100
AcDbPolyline
 90
        2
 70
     0
 43
0.0
 10
1534.707222807616
 20
695.2478571546569
 10
1531.308049584787
 20
686.9144532042172
  0
LWPOLYLINE
  5
11D04
330
1F
100
AcDbEntity
  8
0
  6
Continuous
100
AcDbPolyline
 90
        2
 70
     0
 43
0.0
 10
1536.193470115198
 20
640.6420784408547
 10
1539.592643338027
 20
648.9754823912944
  0
LWPOLYLINE
  5
11D05
330
1F
100
AcDbEntity
  8
0
  6
Continuous
100
AcDbPolyline
 90
        3
 70
     0
 43
0.0
 10
1539.592643338027
 20
648.9754823912944
 10
1519.222100348063
 20
657.2845724915425
 10
1515.822927125234
 20
648.9511685411025
  0
LINE
  5
11D06
330
1F
100
AcDbEntity
  8
0
  6
Continuous
100
AcDbLine
 10
1531.308049584787
 20
686.9144532042172
 30
0.0
 11
1551.678592574751
 21
678.6053631039692
 31
0.0
  0
LWPOLYLINE
  5
11D07
330
1F
100
AcDbEntity
  8
0
  6
Continuous
100
AcDbPolyline
 90
        2
 70
     0
 43
0.0
 10
1551.678592574751
 20
678.6053631039692
 10
1555.07776579758
 20
686.9387670544092
  0
LWPOLYLINE
  5
11D0D
330
1F
100
AcDbEntity
  8
0
  6
Continuous
100
AcDbPolyline
 90
       15
 70
     1
 43
0.0
 10
1484.276934542701
 20
752.3242801470241
 10
1416.081805587408
 20
719.5899546057961
 42
0.4142135623731006
 10
1413.737898402529
 20
712.9186654418732
 10
1431.047426318708
 20
676.8578800466668
 42
0.414213562373104
 10
1437.718715482631
 20
674.5139728617886
 10
1505.914698819402
 20
707.2487085144421
 42
-0.116132894699231
 10
1510.391396016958
 20
708.2323973517762
 10
1882.195232192156
 20
702.6801812788382
 42
0.116132894699231
 10
1886.671929389712
 20
703.6638701161726
 10
1974.701344693847
 20
745.9188461227229
 10
1968.21027172528
 20
759.441640645925
 42
0.4142135623730951
 10
1961.538982561357
 20
761.7855478308036
 10
1932.109197905909
 20
747.658964799467
 42
-0.1161783963719004
 10
1927.630705073743
 20
746.6753029379487
 10
1488.755427374867
 20
753.3079420085421
 42
0.1161783963719004
  0
MTEXT
  5
11D3E
330
1F
100
AcDbEntity
  8
0
  6
Continuous
100
AcDbMText
 10
1444.0
 20
1576.5
 30
0.0
 40
10.0
 41
319.0
 46
0.0
 71
     1
 72
     5
  1
Wandhalterung 21mm
 73
     1
 44
1.0
101
Embedded Object
 70
     1
 10
1.0
 20
0.0
 30
0.0
 11
1444.0
 21
1576.5
 31
0.0
 40
319.0
 41
0.0
 42
171.6666666666666
 43
13.33333333333333
 71
     2
 72
     1
 44
319.0
 45
50.0
 73
     0
 74
     0
 46
0.0
  0
MTEXT
  5
11D3F
330
1F
100
AcDbEntity
  8
0
  6
Continuous
100
AcDbMText
 10
1584.5
 20
789.0
 30
0.0
 40
10.0
 41
327.0
 46
0.0
 71
     1
 72
     5
  1
Stütze 19mm
 73
     1
 44
1.0
101
Embedded Object
 70
     1
 10
1.0
 20
0.0
 30
0.0
 11
1584.5
 21
789.0
 31
0.0
 40
327.0
 41
0.0
 42
103.3333333333333
 43
10.0
 71
     2
 72
     1
 44
327.0
 45
50.0
 73
     0
 74
     0
 46
0.0
  0
MTEXT
  5
11D54
330
1F
100
AcDbEntity
  8
0
  6
Continuous
100
AcDbMText
 10
1142.0
 20
1178.5
 30
0.0
 40
10.0
 41
176.5
 46
0.0
 71
     1
 72
     5
  1
Aluminium 10mm
 73
     1
 44
1.0
101
Embedded Object
 70
     1
 10
1.0
 20
0.0
 30
0.0
 11
1142.0
 21
1178.5
 31
0.0
 40
176.5
 41
0.0
 42
113.3333333333334
 43
10.0
 71
     2
 72
     1
 44
176.5
 45
50.0
 73
     0
 74
     0
 46
0.0
  0
MTEXT
  5
11D55
330
1F
100
AcDbEntity
  8
0
  6
Continuous
100
AcDbMText
 10
1180.0
 20
986.0
 30
0.0
 40
10.0
 41
143.5
 46
0.0
 71
     1
 72
     5
  1
3D-Printed 5mm
 73
     1
 44
1.0
101
Embedded Object
 70
     1
 10
1.0
 20
0.0
 30
0.0
 11
1180.0
 21
986.0
 31
0.0
 40
143.5
 41
0.0
 42
130.0
 43
10.0
 71
     2
 72
     1
 44
143.5
 45
50.0
 73
     0
 74
     0
 46
0.0
  0
MTEXT
  5
11D56
330
1F
100
AcDbEntity
  8
0
  6
Continuous
100
AcDbMText
 10
378.0000000000001
 20
569.5
 30
0.0
 40
10.0
 41
244.4999999999999
 46
0.0
 71
     1
 72
     5
  1
Top and Bottom 12mm
 73
     1
 44
1.0
101
Embedded Object
 70
     1
 10
1.0
 20
0.0
 30
0.0
 11
378.0000000000001
 21
569.5
 31
0.0
 40
244.4999999999999
 41
0.0
 42
183.3333333333333
 43
13.33333333333333
 71
     2
 72
     1
 44
244.4999999999999
 45
50.0
 73
     0
 74
     0
 46
0.0
  0
MTEXT
  5
11D57
330
1F
100
AcDbEntity
  8
0
  6
Continuous
100
AcDbMText
 10
1104.5
 20
571.0
 30
0.0
 40
10.0
 41
212.0
 46
0.0
 71
     1
 72
     5
  1
Bridges 12mm
 73
     1
 44
1.0
101
Embedded Object
 70
     1
 10
1.0
 20
0.0
 30
0.0
 11
1104.5
 21
571.0
 31
0.0
 40
212.0
 41
0.0
 42
106.6666666666667
 43
13.33333333333333
 71
     2
 72
     1
 44
212.0
 45
50.0
 73
     0
 74
     0
 46
0.0
  0
MTEXT
  5
11D58
330
1F
100
AcDbEntity
  8
0
  6
Continuous
100
AcDbMText
 10
467.5
 20
1462.5
 30
0.0
 40
10.0
 41
377.4999999999999
 46
0.0
 71
     1
 72
     5
  1
Sides 10mm
 73
     1
 44
1.0
101
Embedded Object
 70
     1
 10
1.0
 20
0.0
 30
0.0
 11
467.5
 21
1462.5
 31
0.0
 40
377.4999999999999
 41
0.0
 42
85.00000000000005
 43
10.0
 71
     2
 72
     1
 44
377.4999999999999
 45
50.0
 73
     0
 74
     0
 46
0.0
  0
CIRCLE
  5
11D6A
330
1F
100
AcDbEntity
  8
0
  6
Continuous
100
AcDbCircle
 10
1230.0
 20
1231.1506190226
 30
0.0
 40
4.0
  0
CIRCLE
  5
11D6B
330
1F
100
AcDbEntity
  8
0
  6
Continuous
100
AcDbCircle
 10
1110.0
 20
1231.1506190226
 30
0.0
 40
4.0
  0
MTEXT
  5
11D6C
330
1F
100
AcDbEntity
  8
0
  6
Continuous
100
AcDbMText
 10
1059.5
 20
1263.6506190226
 30
0.0
 40
10.0
 41
290.0
 46
0.0
 71
     1
 72
     5
  1
Holes for aluminium backplate
 73
     1
 44
1.0
101
Embedded Object
 70
     1
 10
1.0
 20
0.0
 30
0.0
 11
1059.5
 21
1263.6506190226
 31
0.0
 40
290.0
 41
0.0
 42
258.3333333333334
 43
13.33333333333333
 71
     2
 72
     1
 44
290.0
 45
50.0
 73
     0
 74
     0
 46
0.0
  0
LWPOLYLINE
  5
11D80
330
1F
100
AcDbEntity
  8
0
  6
Continuous
100
AcDbPolyline
 90
        3
 70
     0
 43
0.0
 10
1435.5
 20
1201.0
 10
1435.5
 20
1180.0
 10
1460.0
 20
1180.0
  0
LWPOLYLINE
  5
11D81
330
1F
100
AcDbEntity
  8
0
  6
Continuous
100
AcDbPolyline
 90
        4
 70
     1
 43
0.0
 10
1490.0
 20
1180.0
 10
1514.5
 20
1180.0
 10
1514.5
 20
1201.0
 10
1490.0
 20
1201.0
  0
LWPOLYLINE
  5
11D82
330
1F
100
AcDbEntity
  8
0
  6
Continuous
100
AcDbPolyline
 90
        4
 70
     1
 43
0.0
 10
1490.0
 20
1238.0
 10
1514.5
 20
1238.0
 10
1514.5
 20
1259.0
 10
1490.0
 20
1259.0
  0
LWPOLYLINE
  5
11D83
330
1F
100
AcDbEntity
  8
0
  6
Continuous
100
AcDbPolyline
 90
        4
 70
     1
 43
0.0
 10
1435.5
 20
1238.0
 10
1435.5
 20
1259.0
 10
1460.0
 20
1259.0
 10
1460.0
 20
1238.0
  0
LWPOLYLINE
  5
11D84
330
1F
100
AcDbEntity
  8
0
  6
Continuous
100
AcDbPolyline
 90
        3
 70
     0
 43
0.0
 10
1435.5
 20
1201.0
 10
1460.0
 20
1201.0
 10
1460.0
 20
1180.0
  0
LWPOLYLINE
  5
11DB2
330
1F
100
AcDbEntity
  8
0
  6
Continuous
100
AcDbPolyline
 90
        4
 70
     1
 43
0.0
 10
1570.0
 20
1435.0
 10
1620.0
 20
1435.0
 10
1620.0
 20
1489.0
 10
1570.0
 20
1489.0
  0
LWPOLYLINE
  5
11DB3
330
1F
100
AcDbEntity
  8
0
  6
Continuous
100
AcDbPolyline
 90
        4
 70
     1
 43
0.0
 10
1667.0
 20
1435.0
 10
1667.0
 20
1485.0
 10
1630.0
 20
1485.0
 10
1630.0
 20
1435.0
  0
LWPOLYLINE
  5
11DB4
330
1F
100
AcDbEntity
  8
0
  6
Continuous
100
AcDbPolyline
 90
        4
 70
     1
 43
0.0
 10
1714.0
 20
1435.0
 10
1714.0
 20
1485.0
 10
1677.0
 20
1485.0
 10
1677.0
 20
1435.0
  0
LWPOLYLINE
  5
11E14
330
1F
100
AcDbEntity
  8
0
  6
Continuous
100
AcDbPolyline
 90
       30
 70
     1
 43
0.0
 10
1568.0
 20
1385.0
 10
1589.0
 20
1385.0
 10
1589.0
 20
1381.825
 10
1568.0
 20
1381.825
 10
1568.0
 20
1373.0
 42
0.4142135623730951
 10
1571.0
 20
1370.0
 10
1589.0
 20
1370.0
 10
1589.0
 20
1340.0
 10
1571.0
 20
1340.0
 42
0.414213562373095
 10
1568.0
 20
1337.0
 10
1568.0
 20
1328.175
 10
1589.0
 20
1328.175
 10
1589.0
 20
1325.0
 10
1568.0
 20
1325.0
 10
1568.0
 20
1318.0
 42
0.4142135623730951
 10
1571.0
 20
1315.0
 10
1589.0
 20
1315.0
 10
1589.0
 20
1290.0
 10
1637.819660112501
 20
1290.0
 42
0.1164338214658486
 10
1640.05572809
 20
1290.527864045
 10
1687.976977386945
 20
1314.488488693492
 42
-0.1096077450900434
 10
1690.078262546262
 20
1315.01453576755
 42
0.9733971632444037
 10
1690.078262546217
 20
1394.985464232431
 42
-0.1096077450856334
 10
1687.976977386987
 20
1395.511511306486
 10
1640.05572809
 20
1419.472135954999
 42
0.1164338214658486
 10
1637.819660112501
 20
1420.0
 10
1589.0
 20
1420.0
 10
1589.0
 20
1395.0
 10
1571.0
 20
1395.0
 42
0.4142135623730951
 10
1568.0
 20
1392.0
  0
LWPOLYLINE
  5
11E2F
330
1F
100
AcDbEntity
  8
0
  6
Continuous
100
AcDbPolyline
 90
       20
 70
     1
 43
0.0
 10
1571.0
 20
1195.0
 10
1689.0
 20
1195.0
 42
1.0
 10
1689.0
 20
1275.0
 10
1571.0
 20
1275.0
 42
0.4142135623730951
 10
1568.0
 20
1272.0
 10
1568.0
 20
1265.0
 10
1589.0
 20
1265.0
 10
1589.0
 20
1261.825
 10
1568.0
 20
1261.825
 10
1568.0
 20
1253.0
 42
0.4142135623730951
 10
1571.0
 20
1250.0
 10
1589.0
 20
1250.0
 10
1589.0
 20
1220.0
 10
1571.0
 20
1220.0
 42
0.414213562373095
 10
1568.0
 20
1217.0
 10
1568.0
 20
1208.175
 10
1589.0
 20
1208.175
 10
1589.0
 20
1205.0
 10
1568.0
 20
1205.0
 10
1568.0
 20
1198.0
 42
0.4142135623730951
  0
CIRCLE
  5
11E30
330
1F
100
AcDbEntity
  8
0
  6
Continuous
100
AcDbCircle
 10
1689.0
 20
1145.0
 30
0.0
 40
11.0
  0
CIRCLE
  5
11E31
330
1F
100
AcDbEntity
  8
0
  6
Continuous
100
AcDbCircle
 10
1689.0
 20
1145.0
 30
0.0
 40
4.0
  0
CIRCLE
  5
11E34
330
1F
100
AcDbEntity
  8
0
  6
Continuous
100
AcDbCircle
 10
1604.0
 20
1145.0
 30
0.0
 40
1.587499999999999
  0
CIRCLE
  5
11E35
330
1F
100
AcDbEntity
  8
0
  6
Continuous
100
AcDbCircle
 10
1624.0
 20
1145.0
 30
0.0
 40
1.587499999999999
  0
CIRCLE
  5
11E39
330
1F
100
AcDbEntity
  8
0
  6
Continuous
100
AcDbCircle
 10
1689.0
 20
1055.0
 30
0.0
 40
11.0
  0
CIRCLE
  5
11E3A
330
1F
100
AcDbEntity
  8
0
  6
Continuous
100
AcDbCircle
 10
1689.0
 20
1055.0
 30
0.0
 40
4.0
  0
CIRCLE
  5
11E3D
330
1F
100
AcDbEntity
  8
0
  6
Continuous
100
AcDbCircle
 10
1604.0
 20
1055.0
 30
0.0
 40
1.587499999999999
  0
CIRCLE
  5
11E3E
330
1F
100
AcDbEntity
  8
0
  6
Continuous
100
AcDbCircle
 10
1624.0
 20
1055.0
 30
0.0
 40
1.587499999999999
  0
CIRCLE
  5
11E42
330
1F
100
AcDbEntity
  8
0
  6
Continuous
100
AcDbCircle
 10
1689.0
 20
965.0
 30
0.0
 40
11.0
  0
CIRCLE
  5
11E43
330
1F
100
AcDbEntity
  8
0
  6
Continuous
100
AcDbCircle
 10
1689.0
 20
965.0
 30
0.0
 40
4.0
  0
CIRCLE
  5
11E46
330
1F
100
AcDbEntity
  8
0
  6
Continuous
100
AcDbCircle
 10
1604.0
 20
965.0
 30
0.0
 40
1.587499999999999
  0
CIRCLE
  5
11E47
330
1F
100
AcDbEntity
  8
0
  6
Continuous
100
AcDbCircle
 10
1624.0
 20
965.0
 30
0.0
 40
1.587499999999999
  0
LWPOLYLINE
  5
11E4A
330
1F
100
AcDbEntity
  8
0
  6
Continuous
100
AcDbPolyline
 90
       20
 70
     1
 43
0.0
 10
1571.0
 20
925.0
 10
1689.0
 20
925.0
 42
1.0
 10
1689.0
 20
1005.0
 10
1571.0
 20
1005.0
 42
0.4142135623730951
 10
1568.0
 20
1002.0
 10
1568.0
 20
995.0
 10
1589.0
 20
995.0
 10
1589.0
 20
991.825
 10
1568.0
 20
991.825
 10
1568.0
 20
983.0
 42
0.4142135623730951
 10
1571.0
 20
980.0
 10
1589.0
 20
980.0
 10
1589.0
 20
950.0
 10
1571.0
 20
950.0
 42
0.414213562373095
 10
1568.0
 20
947.0
 10
1568.0
 20
938.175
 10
1589.0
 20
938.175
 10
1589.0
 20
935.0
 10
1568.0
 20
935.0
 10
1568.0
 20
928.0
 42
0.4142135623730951
  0
CIRCLE
  5
11E4B
330
1F
100
AcDbEntity
  8
0
  6
Continuous
100
AcDbCircle
 10
1689.0
 20
875.0
 30
0.0
 40
11.0
  0
CIRCLE
  5
11E4C
330
1F
100
AcDbEntity
  8
0
  6
Continuous
100
AcDbCircle
 10
1689.0
 20
875.0
 30
0.0
 40
4.0
  0
CIRCLE
  5
11E4F
330
1F
100
AcDbEntity
  8
0
  6
Continuous
100
AcDbCircle
 10
1604.0
 20
875.0
 30
0.0
 40
1.587499999999999
  0
CIRCLE
  5
11E50
330
1F
100
AcDbEntity
  8
0
  6
Continuous
100
AcDbCircle
 10
1624.0
 20
875.0
 30
0.0
 40
1.587499999999999
  0
LWPOLYLINE
  5
11E66
330
1F
100
AcDbEntity
  8
0
  6
Continuous
100
AcDbPolyline
 90
       20
 70
     1
 43
0.0
 10
1568.0
 20
845.0
 10
1568.0
 20
838.0
 42
0.4142135623730951
 10
1571.0
 20
835.0
 10
1689.0
 20
835.0
 42
1.0
 10
1689.0
 20
915.0
 10
1571.0
 20
915.0
 42
0.4142135623730951
 10
1568.0
 20
912.0
 10
1568.0
 20
905.0
 10
1589.0
 20
905.0
 10
1589.0
 20
901.825
 10
1568.0
 20
901.825
 10
1568.0
 20
893.0
 42
0.4142135623730951
 10
1571.0
 20
890.0
 10
1589.0
 20
890.0
 10
1589.0
 20
860.0
 10
1571.0
 20
860.0
 42
0.414213562373095
 10
1568.0
 20
857.0
 10
1568.0
 20
848.1749999999999
 10
1589.0
 20
848.1749999999999
 10
1589.0
 20
845.0
  0
LWPOLYLINE
  5
11E69
330
1F
100
AcDbEntity
  8
0
  6
Continuous
100
AcDbPolyline
 90
       20
 70
     1
 43
0.0
 10
1568.0
 20
1025.0
 10
1568.0
 20
1018.0
 42
0.4142135623730951
 10
1571.0
 20
1015.0
 10
1689.0
 20
1015.0
 42
1.0
 10
1689.0
 20
1095.0
 10
1571.0
 20
1095.0
 42
0.4142135623730951
 10
1568.0
 20
1092.0
 10
1568.0
 20
1085.0
 10
1589.0
 20
1085.0
 10
1589.0
 20
1081.825
 10
1568.0
 20
1081.825
 10
1568.0
 20
1073.0
 42
0.4142135623730951
 10
1571.0
 20
1070.0
 10
1589.0
 20
1070.0
 10
1589.0
 20
1040.0
 10
1571.0
 20
1040.0
 42
0.414213562373095
 10
1568.0
 20
1037.0
 10
1568.0
 20
1028.175
 10
1589.0
 20
1028.175
 10
1589.0
 20
1025.0
  0
LWPOLYLINE
  5
11E6B
330
1F
100
AcDbEntity
  8
0
  6
Continuous
100
AcDbPolyline
 90
       20
 70
     1
 43
0.0
 10
1568.0
 20
1115.0
 10
1568.0
 20
1108.0
 42
0.4142135623730951
 10
1571.0
 20
1105.0
 10
1689.0
 20
1105.0
 42
1.0
 10
1689.0
 20
1185.0
 10
1571.0
 20
1185.0
 42
0.4142135623730951
 10
1568.0
 20
1182.0
 10
1568.0
 20
1175.0
 10
1589.0
 20
1175.0
 10
1589.0
 20
1171.825
 10
1568.0
 20
1171.825
 10
1568.0
 20
1163.0
 42
0.4142135623730951
 10
1571.0
 20
1160.0
 10
1589.0
 20
1160.0
 10
1589.0
 20
1130.0
 10
1571.0
 20
1130.0
 42
0.414213562373095
 10
1568.0
 20
1127.0
 10
1568.0
 20
1118.175
 10
1589.0
 20
1118.175
 10
1589.0
 20
1115.0
  0
LWPOLYLINE
  5
11E82
330
1F
100
AcDbEntity
  8
0
  6
Continuous
100
AcDbPolyline
 90
        4
 70
     1
 43
0.0
 10
1055.0
 20
795.0
 10
1115.0
 20
795.0
 10
1115.0
 20
695.0
 10
1055.0
 20
695.0
  0
CIRCLE
  5
11E83
330
1F
100
AcDbEntity
  8
0
  6
Continuous
100
AcDbCircle
 10
1084.5
 20
730.0
 30
0.0
 40
25.0
  0
CIRCLE
  5
11E84
330
1F
100
AcDbEntity
  8
0
  6
Continuous
100
AcDbCircle
 10
1070.0
 20
774.5
 30
0.0
 40
10.0
  0
CIRCLE
  5
11E85
330
1F
100
AcDbEntity
  8
0
  6
Continuous
100
AcDbCircle
 10
1100.0
 20
774.5
 30
0.0
 40
10.0
  0
LWPOLYLINE
  5
11E86
330
1F
100
AcDbEntity
  8
0
  6
Continuous
100
AcDbPolyline
 90
        4
 70
     1
 43
0.0
 10
1055.0
 20
685.0
 10
1115.0
 20
685.0
 10
1115.0
 20
585.0
 10
1055.0
 20
585.0
  0
CIRCLE
  5
11E87
330
1F
100
AcDbEntity
  8
0
  6
Continuous
100
AcDbCircle
 10
1084.5
 20
620.0
 30
0.0
 40
25.0
  0
CIRCLE
  5
11E88
330
1F
100
AcDbEntity
  8
0
  6
Continuous
100
AcDbCircle
 10
1070.0
 20
664.5
 30
0.0
 40
10.0
  0
CIRCLE
  5
11E89
330
1F
100
AcDbEntity
  8
0
  6
Continuous
100
AcDbCircle
 10
1100.0
 20
664.5
 30
0.0
 40
10.0
  0
LWPOLYLINE
  5
11E8A
330
1F
100
AcDbEntity
  8
0
  6
Continuous
100
AcDbPolyline
 90
        4
 70
     1
 43
0.0
 10
1125.0
 20
905.0
 10
1185.0
 20
905.0
 10
1185.0
 20
805.0
 10
1125.0
 20
805.0
  0
CIRCLE
  5
11E8B
330
1F
100
AcDbEntity
  8
0
  6
Continuous
100
AcDbCircle
 10
1154.5
 20
840.0
 30
0.0
 40
25.0
  0
CIRCLE
  5
11E8C
330
1F
100
AcDbEntity
  8
0
  6
Continuous
100
AcDbCircle
 10
1140.0
 20
884.5
 30
0.0
 40
10.0
  0
CIRCLE
  5
11E8D
330
1F
100
AcDbEntity
  8
0
  6
Continuous
100
AcDbCircle
 10
1170.0
 20
884.5
 30
0.0
 40
10.0
  0
LWPOLYLINE
  5
11E8E
330
1F
100
AcDbEntity
  8
0
  6
Continuous
100
AcDbPolyline
 90
        4
 70
     1
 43
0.0
 10
1125.0
 20
795.0
 10
1185.0
 20
795.0
 10
1185.0
 20
695.0
 10
1125.0
 20
695.0
  0
CIRCLE
  5
11E8F
330
1F
100
AcDbEntity
  8
0
  6
Continuous
100
AcDbCircle
 10
1154.5
 20
730.0
 30
0.0
 40
25.0
  0
CIRCLE
  5
11E90
330
1F
100
AcDbEntity
  8
0
  6
Continuous
100
AcDbCircle
 10
1140.0
 20
774.5
 30
0.0
 40
10.0
  0
CIRCLE
  5
11E91
330
1F
100
AcDbEntity
  8
0
  6
Continuous
100
AcDbCircle
 10
1170.0
 20
774.5
 30
0.0
 40
10.0
  0
LWPOLYLINE
  5
11E92
330
1F
100
AcDbEntity
  8
0
  6
Continuous
100
AcDbPolyline
 90
        4
 70
     1
 43
0.0
 10
1125.0
 20
685.0
 10
1185.0
 20
685.0
 10
1185.0
 20
585.0
 10
1125.0
 20
585.0
  0
CIRCLE
  5
11E93
330
1F
100
AcDbEntity
  8
0
  6
Continuous
100
AcDbCircle
 10
1154.5
 20
620.0
 30
0.0
 40
25.0
  0
CIRCLE
  5
11E94
330
1F
100
AcDbEntity
  8
0
  6
Continuous
100
AcDbCircle
 10
1140.0
 20
664.5
 30
0.0
 40
10.0
  0
CIRCLE
  5
11E95
330
1F
100
AcDbEntity
  8
0
  6
Continuous
100
AcDbCircle
 10
1170.0
 20
664.5
 30
0.0
 40
10.0
  0
LWPOLYLINE
  5
11E96
330
1F
100
AcDbEntity
  8
0
  6
Continuous
100
AcDbPolyline
 90
        4
 70
     1
 43
0.0
 10
1195.0
 20
905.0
 10
1255.0
 20
905.0
 10
1255.0
 20
805.0
 10
1195.0
 20
805.0
  0
CIRCLE
  5
11E97
330
1F
100
AcDbEntity
  8
0
  6
Continuous
100
AcDbCircle
 10
1224.5
 20
840.0
 30
0.0
 40
25.0
  0
CIRCLE
  5
11E98
330
1F
100
AcDbEntity
  8
0
  6
Continuous
100
AcDbCircle
 10
1210.0
 20
884.5
 30
0.0
 40
10.0
  0
CIRCLE
  5
11E99
330
1F
100
AcDbEntity
  8
0
  6
Continuous
100
AcDbCircle
 10
1240.0
 20
884.5
 30
0.0
 40
10.0
  0
LWPOLYLINE
  5
11E9A
330
1F
100
AcDbEntity
  8
0
  6
Continuous
100
AcDbPolyline
 90
        4
 70
     1
 43
0.0
 10
1195.0
 20
795.0
 10
1255.0
 20
795.0
 10
1255.0
 20
695.0
 10
1195.0
 20
695.0
  0
CIRCLE
  5
11E9B
330
1F
100
AcDbEntity
  8
0
  6
Continuous
100
AcDbCircle
 10
1224.5
 20
730.0
 30
0.0
 40
25.0
  0
CIRCLE
  5
11E9C
330
1F
100
AcDbEntity
  8
0
  6
Continuous
100
AcDbCircle
 10
1210.0
 20
774.5
 30
0.0
 40
10.0
  0
CIRCLE
  5
11E9D
330
1F
100
AcDbEntity
  8
0
  6
Continuous
100
AcDbCircle
 10
1240.0
 20
774.5
 30
0.0
 40
10.0
  0
LWPOLYLINE
  5
11E9E
330
1F
100
AcDbEntity
  8
0
  6
Continuous
100
AcDbPolyline
 90
        4
 70
     1
 43
0.0
 10
1195.0
 20
685.0
 10
1255.0
 20
685.0
 10
1255.0
 20
585.0
 10
1195.0
 20
585.0
  0
CIRCLE
  5
11E9F
330
1F
100
AcDbEntity
  8
0
  6
Continuous
100
AcDbCircle
 10
1224.5
 20
620.0
 30
0.0
 40
25.0
  0
CIRCLE
  5
11EA0
330
1F
100
AcDbEntity
  8
0
  6
Continuous
100
AcDbCircle
 10
1210.0
 20
664.5
 30
0.0
 40
10.0
  0
CIRCLE
  5
11EA1
330
1F
100
AcDbEntity
  8
0
  6
Continuous
100
AcDbCircle
 10
1240.0
 20
664.5
 30
0.0
 40
10.0
  0
LWPOLYLINE
  5
11EA2
330
1F
100
AcDbEntity
  8
0
  6
Continuous
100
AcDbPolyline
 90
        4
 70
     1
 43
0.0
 10
1265.0
 20
905.0
 10
1325.0
 20
905.0
 10
1325.0
 20
805.0
 10
1265.0
 20
805.0
  0
CIRCLE
  5
11EA3
330
1F
100
AcDbEntity
  8
0
  6
Continuous
100
AcDbCircle
 10
1294.5
 20
840.0
 30
0.0
 40
25.0
  0
CIRCLE
  5
11EA4
330
1F
100
AcDbEntity
  8
0
  6
Continuous
100
AcDbCircle
 10
1280.0
 20
884.5
 30
0.0
 40
10.0
  0
CIRCLE
  5
11EA5
330
1F
100
AcDbEntity
  8
0
  6
Continuous
100
AcDbCircle
 10
1310.0
 20
884.5
 30
0.0
 40
10.0
  0
LWPOLYLINE
  5
11EA6
330
1F
100
AcDbEntity
  8
0
  6
Continuous
100
AcDbPolyline
 90
        4
 70
     1
 43
0.0
 10
1265.0
 20
795.0
 10
1325.0
 20
795.0
 10
1325.0
 20
695.0
 10
1265.0
 20
695.0
  0
CIRCLE
  5
11EA8
330
1F
100
AcDbEntity
  8
0
  6
Continuous
100
AcDbCircle
 10
1280.0
 20
774.5
 30
0.0
 40
10.0
  0
CIRCLE
  5
11EA9
330
1F
100
AcDbEntity
  8
0
  6
Continuous
100
AcDbCircle
 10
1310.0
 20
774.5
 30
0.0
 40
10.0
  0
LWPOLYLINE
  5
11EDF
330
1F
100
AcDbEntity
  8
0
  6
Continuous
100
AcDbPolyline
 90
        6
 70
     1
 43
0.0
 10
272.5068072644121
 20
1398.827931566024
 42
0.5322533068120377
 10
269.5642804316122
 20
1403.198395117473
 10
201.6357195683884
 20
1403.198395117473
 42
0.5322533068120372
 10
198.6931927355884
 20
1398.827931566024
 10
232.6574731672004
 20
1315.172068433975
 42
0.673275683039347
 10
238.5425268328004
 20
1315.172068433975
  0
LWPOLYLINE
  5
11EE0
330
1F
100
AcDbEntity
  8
0
  6
Continuous
100
AcDbPolyline
 90
        6
 70
     1
 43
0.0
 10
117.4931927355886
 20
1315.172068433975
 42
0.5322533068120375
 10
120.4357195683886
 20
1310.801604882527
 10
188.3642804316123
 20
1310.801604882527
 42
0.5322533068120375
 10
191.3068072644123
 20
1315.172068433975
 10
157.3425268328003
 20
1398.827931566025
 42
0.673275683039347
 10
151.4574731672003
 20
1398.827931566025
  0
LWPOLYLINE
  5
11EE1
330
1F
100
AcDbEntity
  8
0
  6
Continuous
100
AcDbPolyline
 90
        6
 70
     1
 43
0.0
 10
317.4931927355883
 20
1315.172068433975
 42
0.5322533068120375
 10
320.4357195683882
 20
1310.801604882527
 10
388.364280431612
 20
1310.801604882527
 42
0.5322533068120375
 10
391.306807264412
 20
1315.172068433975
 10
357.3425268327999
 20
1398.827931566025
 42
0.673275683039347
 10
351.4574731672
 20
1398.827931566025
  0
LWPOLYLINE
  5
11EE2
330
1F
100
AcDbEntity
  8
0
  6
Continuous
100
AcDbPolyline
 90
        6
 70
     1
 43
0.0
 10
472.5068072644118
 20
1398.827931566024
 42
0.5322533068120377
 10
469.5642804316118
 20
1403.198395117473
 10
401.6357195683881
 20
1403.198395117473
 42
0.5322533068120372
 10
398.6931927355881
 20
1398.827931566024
 10
432.6574731672002
 20
1315.172068433975
 42
0.673275683039347
 10
438.5425268328001
 20
1315.172068433975
  0
LWPOLYLINE
  5
11EE3
330
1F
100
AcDbEntity
  8
0
  6
Continuous
100
AcDbPolyline
 90
        6
 70
     1
 43
0.0
 10
717.493192735588
 20
1315.172068433976
 42
0.5322533068120547
 10
720.4357195683878
 20
1310.801604882527
 10
788.3642804316116
 20
1310.801604882527
 42
0.5322533068120546
 10
791.3068072644116
 20
1315.172068433976
 10
757.3425268327995
 20
1398.827931566025
 42
0.6732756830393079
 10
751.4574731671997
 20
1398.827931566025
  0
LWPOLYLINE
  5
11EE4
330
1F
100
AcDbEntity
  8
0
  6
Continuous
100
AcDbPolyline
 90
        6
 70
     1
 43
0.0
 10
872.5068072644114
 20
1398.827931566024
 42
0.53225330681204
 10
869.5642804316115
 20
1403.198395117473
 10
801.6357195683877
 20
1403.198395117473
 42
0.5322533068120375
 10
798.6931927355876
 20
1398.827931566024
 10
832.6574731671996
 20
1315.172068433975
 42
0.6732756830393441
 10
838.5425268327997
 20
1315.172068433975
  0
LWPOLYLINE
  5
11EE5
330
1F
100
AcDbEntity
  8
0
  6
Continuous
100
AcDbPolyline
 90
        6
 70
     1
 43
0.0
 10
672.5068072644118
 20
1398.827931566024
 42
0.53225330681204
 10
669.5642804316118
 20
1403.198395117473
 10
601.635719568388
 20
1403.198395117473
 42
0.5322533068120375
 10
598.693192735588
 20
1398.827931566024
 10
632.6574731672
 20
1315.172068433975
 42
0.6732756830393441
 10
638.5425268328
 20
1315.172068433975
  0
LWPOLYLINE
  5
11EE6
330
1F
100
AcDbEntity
  8
0
  6
Continuous
100
AcDbPolyline
 90
        6
 70
     1
 43
0.0
 10
517.4931927355881
 20
1315.172068433976
 42
0.5322533068120547
 10
520.4357195683881
 20
1310.801604882527
 10
588.3642804316118
 20
1310.801604882527
 42
0.5322533068120546
 10
591.3068072644119
 20
1315.172068433976
 10
557.3425268327997
 20
1398.827931566025
 42
0.6732756830393246
 10
551.4574731671998
 20
1398.827931566025
  0
LWPOLYLINE
  5
11EE7
330
1F
100
AcDbEntity
  8
0
  6
Continuous
100
AcDbPolyline
 90
        6
 70
     1
 43
0.0
 10
272.5068072644121
 20
1284.827931566024
 42
0.5322533068120377
 10
269.5642804316122
 20
1289.198395117473
 10
201.6357195683883
 20
1289.198395117473
 42
0.5322533068120372
 10
198.6931927355883
 20
1284.827931566024
 10
232.6574731672004
 20
1201.172068433975
 42
0.673275683039347
 10
238.5425268328003
 20
1201.172068433975
  0
LWPOLYLINE
  5
11EE8
330
1F
100
AcDbEntity
  8
0
  6
Continuous
100
AcDbPolyline
 90
        6
 70
     1
 43
0.0
 10
117.4931927355886
 20
1201.172068433975
 42
0.5322533068120375
 10
120.4357195683885
 20
1196.801604882527
 10
188.3642804316123
 20
1196.801604882527
 42
0.5322533068120375
 10
191.3068072644123
 20
1201.172068433975
 10
157.3425268328003
 20
1284.827931566025
 42
0.673275683039347
 10
151.4574731672003
 20
1284.827931566025
  0
LWPOLYLINE
  5
11EE9
330
1F
100
AcDbEntity
  8
0
  6
Continuous
100
AcDbPolyline
 90
        6
 70
     1
 43
0.0
 10
317.4931927355883
 20
1201.172068433975
 42
0.5322533068120375
 10
320.4357195683882
 20
1196.801604882527
 10
388.364280431612
 20
1196.801604882527
 42
0.5322533068120375
 10
391.306807264412
 20
1201.172068433975
 10
357.3425268327999
 20
1284.827931566025
 42
0.673275683039347
 10
351.4574731672
 20
1284.827931566025
  0
LWPOLYLINE
  5
11EEA
330
1F
100
AcDbEntity
  8
0
  6
Continuous
100
AcDbPolyline
 90
        6
 70
     1
 43
0.0
 10
472.5068072644118
 20
1284.827931566024
 42
0.5322533068120377
 10
469.5642804316118
 20
1289.198395117473
 10
401.6357195683881
 20
1289.198395117473
 42
0.5322533068120372
 10
398.6931927355881
 20
1284.827931566024
 10
432.6574731672002
 20
1201.172068433975
 42
0.673275683039347
 10
438.5425268328001
 20
1201.172068433975
  0
LWPOLYLINE
  5
11EEB
330
1F
100
AcDbEntity
  8
0
  6
Continuous
100
AcDbPolyline
 90
        6
 70
     1
 43
0.0
 10
717.493192735588
 20
1201.172068433975
 42
0.5322533068120472
 10
720.4357195683878
 20
1196.801604882527
 10
788.3642804316116
 20
1196.801604882527
 42
0.5322533068120475
 10
791.3068072644116
 20
1201.172068433975
 10
757.3425268327995
 20
1284.827931566025
 42
0.6732756830393246
 10
751.4574731671997
 20
1284.827931566025
  0
LWPOLYLINE
  5
11EEC
330
1F
100
AcDbEntity
  8
0
  6
Continuous
100
AcDbPolyline
 90
        6
 70
     1
 43
0.0
 10
872.5068072644113
 20
1284.827931566024
 42
0.5322533068120471
 10
869.5642804316115
 20
1289.198395117473
 10
801.6357195683877
 20
1289.198395117473
 42
0.5322533068120472
 10
798.6931927355876
 20
1284.827931566024
 10
832.6574731671998
 20
1201.172068433975
 42
0.6732756830393249
 10
838.5425268327995
 20
1201.172068433975
  0
LWPOLYLINE
  5
11EED
330
1F
100
AcDbEntity
  8
0
  6
Continuous
100
AcDbPolyline
 90
        6
 70
     1
 43
0.0
 10
672.5068072644116
 20
1284.827931566024
 42
0.5322533068120471
 10
669.5642804316118
 20
1289.198395117473
 10
601.635719568388
 20
1289.198395117473
 42
0.5322533068120472
 10
598.693192735588
 20
1284.827931566024
 10
632.6574731672001
 20
1201.172068433975
 42
0.6732756830393249
 10
638.5425268327999
 20
1201.172068433975
  0
LWPOLYLINE
  5
11EEE
330
1F
100
AcDbEntity
  8
0
  6
Continuous
100
AcDbPolyline
 90
        6
 70
     1
 43
0.0
 10
517.4931927355881
 20
1201.172068433975
 42
0.5322533068120472
 10
520.4357195683881
 20
1196.801604882527
 10
588.3642804316118
 20
1196.801604882527
 42
0.5322533068120475
 10
591.3068072644119
 20
1201.172068433975
 10
557.3425268327997
 20
1284.827931566025
 42
0.6732756830393246
 10
551.4574731671999
 20
1284.827931566025
  0
LWPOLYLINE
  5
11EEF
330
1F
100
AcDbEntity
  8
0
  6
Continuous
100
AcDbPolyline
 90
        6
 70
     1
 43
0.0
 10
272.5068072644121
 20
1170.827931566024
 42
0.5322533068120377
 10
269.5642804316122
 20
1175.198395117473
 10
201.6357195683883
 20
1175.198395117473
 42
0.5322533068120372
 10
198.6931927355883
 20
1170.827931566024
 10
232.6574731672004
 20
1087.172068433975
 42
0.673275683039347
 10
238.5425268328003
 20
1087.172068433975
  0
LWPOLYLINE
  5
11EF0
330
1F
100
AcDbEntity
  8
0
  6
Continuous
100
AcDbPolyline
 90
        6
 70
     1
 43
0.0
 10
117.4931927355886
 20
1087.172068433975
 42
0.5322533068120375
 10
120.4357195683885
 20
1082.801604882527
 10
188.3642804316123
 20
1082.801604882527
 42
0.5322533068120375
 10
191.3068072644123
 20
1087.172068433975
 10
157.3425268328003
 20
1170.827931566025
 42
0.673275683039347
 10
151.4574731672003
 20
1170.827931566025
  0
LWPOLYLINE
  5
11EF1
330
1F
100
AcDbEntity
  8
0
  6
Continuous
100
AcDbPolyline
 90
        6
 70
     1
 43
0.0
 10
317.4931927355883
 20
1087.172068433975
 42
0.5322533068120375
 10
320.4357195683882
 20
1082.801604882527
 10
388.364280431612
 20
1082.801604882527
 42
0.5322533068120375
 10
391.306807264412
 20
1087.172068433975
 10
357.3425268327999
 20
1170.827931566025
 42
0.673275683039347
 10
351.4574731672
 20
1170.827931566025
  0
LWPOLYLINE
  5
11EF2
330
1F
100
AcDbEntity
  8
0
  6
Continuous
100
AcDbPolyline
 90
        6
 70
     1
 43
0.0
 10
472.5068072644118
 20
1170.827931566024
 42
0.5322533068120377
 10
469.5642804316118
 20
1175.198395117473
 10
401.6357195683881
 20
1175.198395117473
 42
0.5322533068120372
 10
398.6931927355881
 20
1170.827931566024
 10
432.6574731672002
 20
1087.172068433975
 42
0.673275683039347
 10
438.5425268328001
 20
1087.172068433975
  0
LWPOLYLINE
  5
11EF3
330
1F
100
AcDbEntity
  8
0
  6
Continuous
100
AcDbPolyline
 90
        6
 70
     1
 43
0.0
 10
717.493192735588
 20
1087.172068433975
 42
0.5322533068120472
 10
720.4357195683878
 20
1082.801604882527
 10
788.3642804316116
 20
1082.801604882527
 42
0.5322533068120475
 10
791.3068072644116
 20
1087.172068433976
 10
757.3425268327995
 20
1170.827931566025
 42
0.6732756830393246
 10
751.4574731671997
 20
1170.827931566025
  0
LWPOLYLINE
  5
11EF4
330
1F
100
AcDbEntity
  8
0
  6
Continuous
100
AcDbPolyline
 90
        6
 70
     1
 43
0.0
 10
872.5068072644113
 20
1170.827931566024
 42
0.532253306812046
 10
869.5642804316115
 20
1175.198395117473
 10
801.6357195683877
 20
1175.198395117473
 42
0.532253306812046
 10
798.6931927355876
 20
1170.827931566024
 10
832.6574731671998
 20
1087.172068433975
 42
0.6732756830393276
 10
838.5425268327995
 20
1087.172068433975
  0
LWPOLYLINE
  5
11EF5
330
1F
100
AcDbEntity
  8
0
  6
Continuous
100
AcDbPolyline
 90
        6
 70
     1
 43
0.0
 10
672.5068072644116
 20
1170.827931566024
 42
0.532253306812046
 10
669.5642804316118
 20
1175.198395117473
 10
601.635719568388
 20
1175.198395117473
 42
0.532253306812046
 10
598.693192735588
 20
1170.827931566024
 10
632.6574731672001
 20
1087.172068433975
 42
0.6732756830393276
 10
638.5425268327999
 20
1087.172068433975
  0
LWPOLYLINE
  5
11EF6
330
1F
100
AcDbEntity
  8
0
  6
Continuous
100
AcDbPolyline
 90
        6
 70
     1
 43
0.0
 10
517.4931927355881
 20
1087.172068433975
 42
0.5322533068120472
 10
520.4357195683881
 20
1082.801604882527
 10
588.3642804316118
 20
1082.801604882527
 42
0.5322533068120475
 10
591.3068072644119
 20
1087.172068433976
 10
557.3425268327997
 20
1170.827931566025
 42
0.6732756830393246
 10
551.4574731671999
 20
1170.827931566025
  0
LWPOLYLINE
  5
11EF7
330
1F
100
AcDbEntity
  8
0
  6
Continuous
100
AcDbPolyline
 90
        6
 70
     1
 43
0.0
 10
272.5068072644121
 20
1056.827931566024
 42
0.5322533068120395
 10
269.5642804316122
 20
1061.198395117473
 10
201.6357195683883
 20
1061.198395117473
 42
0.5322533068120391
 10
198.6931927355883
 20
1056.827931566024
 10
232.6574731672004
 20
973.1720684339752
 42
0.6732756830393426
 10
238.5425268328003
 20
973.1720684339752
  0
LWPOLYLINE
  5
11EF8
330
1F
100
AcDbEntity
  8
0
  6
Continuous
100
AcDbPolyline
 90
        6
 70
     1
 43
0.0
 10
117.4931927355886
 20
973.1720684339755
 42
0.5322533068120387
 10
120.4357195683885
 20
968.801604882527
 10
188.3642804316123
 20
968.801604882527
 42
0.5322533068120389
 10
191.3068072644123
 20
973.1720684339755
 10
157.3425268328002
 20
1056.827931566024
 42
0.6732756830393441
 10
151.4574731672003
 20
1056.827931566024
  0
LWPOLYLINE
  5
11EF9
330
1F
100
AcDbEntity
  8
0
  6
Continuous
100
AcDbPolyline
 90
        6
 70
     1
 43
0.0
 10
317.4931927355883
 20
973.1720684339755
 42
0.5322533068120387
 10
320.4357195683882
 20
968.801604882527
 10
388.364280431612
 20
968.801604882527
 42
0.5322533068120389
 10
391.306807264412
 20
973.1720684339755
 10
357.3425268327999
 20
1056.827931566024
 42
0.6732756830393441
 10
351.4574731672
 20
1056.827931566024
  0
LWPOLYLINE
  5
11EFA
330
1F
100
AcDbEntity
  8
0
  6
Continuous
100
AcDbPolyline
 90
        6
 70
     1
 43
0.0
 10
472.5068072644118
 20
1056.827931566024
 42
0.5322533068120395
 10
469.5642804316118
 20
1061.198395117473
 10
401.6357195683881
 20
1061.198395117473
 42
0.5322533068120391
 10
398.6931927355881
 20
1056.827931566024
 10
432.6574731672002
 20
973.1720684339752
 42
0.6732756830393426
 10
438.5425268328001
 20
973.1720684339752
  0
LWPOLYLINE
  5
11EFB
330
1F
100
AcDbEntity
  8
0
  6
Continuous
100
AcDbPolyline
 90
        6
 70
     1
 43
0.0
 10
717.493192735588
 20
973.1720684339755
 42
0.5322533068120478
 10
720.4357195683878
 20
968.8016048825272
 10
788.3642804316116
 20
968.8016048825272
 42
0.5322533068120475
 10
791.3068072644116
 20
973.1720684339755
 10
757.3425268327995
 20
1056.827931566024
 42
0.6732756830393243
 10
751.4574731671997
 20
1056.827931566024
  0
LWPOLYLINE
  5
11EFC
330
1F
100
AcDbEntity
  8
0
  6
Continuous
100
AcDbPolyline
 90
        6
 70
     1
 43
0.0
 10
872.5068072644113
 20
1056.827931566024
 42
0.5322533068120425
 10
869.5642804316115
 20
1061.198395117473
 10
801.6357195683877
 20
1061.198395117473
 42
0.5322533068120423
 10
798.6931927355876
 20
1056.827931566024
 10
832.6574731671996
 20
973.1720684339752
 42
0.6732756830393356
 10
838.5425268327995
 20
973.1720684339752
  0
LWPOLYLINE
  5
11EFD
330
1F
100
AcDbEntity
  8
0
  6
Continuous
100
AcDbPolyline
 90
        6
 70
     1
 43
0.0
 10
672.5068072644116
 20
1056.827931566024
 42
0.5322533068120425
 10
669.5642804316118
 20
1061.198395117473
 10
601.635719568388
 20
1061.198395117473
 42
0.5322533068120423
 10
598.693192735588
 20
1056.827931566024
 10
632.6574731672
 20
973.1720684339752
 42
0.6732756830393356
 10
638.5425268327999
 20
973.1720684339752
  0
LWPOLYLINE
  5
11EFE
330
1F
100
AcDbEntity
  8
0
  6
Continuous
100
AcDbPolyline
 90
        6
 70
     1
 43
0.0
 10
517.4931927355881
 20
973.1720684339755
 42
0.5322533068120477
 10
520.4357195683881
 20
968.8016048825272
 10
588.3642804316118
 20
968.8016048825272
 42
0.5322533068120475
 10
591.3068072644119
 20
973.1720684339755
 10
557.3425268327997
 20
1056.827931566024
 42
0.6732756830393249
 10
551.4574731671999
 20
1056.827931566024
  0
LWPOLYLINE
  5
11EFF
330
1F
100
AcDbEntity
  8
0
  6
Continuous
100
AcDbPolyline
 90
        6
 70
     1
 43
0.0
 10
343.6786796564401
 20
611.1213203435599
 42
0.4142135623731393
 10
347.9213203435596
 20
611.1213203435596
 10
372.6786796564404
 20
635.8786796564405
 42
0.6681786379192718
 10
370.5573593128806
 20
641.0
 10
321.0426406871192
 20
641.0
 42
0.6681786379192715
 10
318.9213203435594
 20
635.8786796564405
  0
LWPOLYLINE
  5
11F00
330
1F
100
AcDbEntity
  8
0
  6
Continuous
100
AcDbPolyline
 90
        6
 70
     1
 43
0.0
 10
471.0786796564404
 20
635.8786796564405
 42
0.6681786379192718
 10
468.9573593128805
 20
641.0
 10
419.4426406871191
 20
641.0
 42
0.6681786379192715
 10
417.3213203435593
 20
635.8786796564405
 10
442.0786796564403
 20
611.1213203435596
 42
0.4142135623731393
 10
446.3213203435598
 20
611.1213203435599
  0
LWPOLYLINE
  5
11F01
330
1F
100
AcDbEntity
  8
0
  6
Continuous
100
AcDbPolyline
 90
        6
 70
     1
 43
0.0
 10
368.1213203435594
 20
614.1213203435594
 42
0.6681786379192716
 10
370.2426406871193
 20
609.0
 10
419.7573593128806
 20
609.0
 42
0.6681786379192716
 10
421.8786796564402
 20
614.1213203435596
 10
397.1213203435598
 20
638.8786796564401
 42
0.4142135623731393
 10
392.8786796564401
 20
638.8786796564401
  0
LWPOLYLINE
  5
11F02
330
1F
100
AcDbEntity
  8
0
  6
Continuous
100
AcDbPolyline
 90
        6
 70
     1
 43
0.0
 10
217.3213203435595
 20
614.1213203435594
 42
0.6681786379192716
 10
219.4426406871193
 20
609.0
 10
268.9573593128807
 20
608.9999999999998
 42
0.6681786379192716
 10
271.0786796564405
 20
614.1213203435593
 10
246.3213203435596
 20
638.8786796564403
 42
0.4142135623731393
 10
242.0786796564402
 20
638.8786796564401
  0
LWPOLYLINE
  5
11F03
330
1F
100
AcDbEntity
  8
0
  6
Continuous
100
AcDbPolyline
 90
        6
 70
     1
 43
0.0
 10
118.9213203435596
 20
614.1213203435594
 42
0.6681786379192716
 10
121.0426406871194
 20
609.0
 10
170.5573593128808
 20
609.0
 42
0.6681786379192719
 10
172.6786796564406
 20
614.1213203435594
 10
147.9213203435596
 20
638.8786796564403
 42
0.4142135623731391
 10
143.6786796564402
 20
638.8786796564401
  0
LWPOLYLINE
  5
11F04
330
1F
100
AcDbEntity
  8
0
  6
Continuous
100
AcDbPolyline
 90
        6
 70
     1
 43
0.0
 10
170.2426406871194
 20
641.0
 42
0.6681786379192715
 10
168.1213203435595
 20
635.8786796564405
 10
192.8786796564404
 20
611.1213203435596
 42
0.4142135623731393
 10
197.1213203435598
 20
611.1213203435599
 10
221.8786796564404
 20
635.8786796564403
 42
0.6681786379192718
 10
219.7573593128808
 20
641.0
  0
LWPOLYLINE
  5
11F05
330
1F
100
AcDbEntity
  8
0
  6
Continuous
100
AcDbPolyline
 90
        6
 70
     1
 43
0.0
 10
646.3213203435596
 20
638.8786796564403
 42
0.4142135623730927
 10
642.0786796564402
 20
638.8786796564403
 10
617.3213203435596
 20
614.1213203435596
 42
0.6681786379193003
 10
619.4426406871193
 20
609.0
 10
668.9573593128807
 20
609.0
 42
0.6681786379193003
 10
671.0786796564404
 20
614.1213203435596
  0
LWPOLYLINE
  5
11F06
330
1F
100
AcDbEntity
  8
0
  6
Continuous
100
AcDbPolyline
 90
        6
 70
     1
 43
0.0
 10
518.9213203435596
 20
614.1213203435596
 42
0.6681786379193
 10
521.0426406871192
 20
609.0
 10
570.5573593128806
 20
609.0
 42
0.6681786379193007
 10
572.6786796564403
 20
614.1213203435596
 10
547.9213203435595
 20
638.8786796564403
 42
0.4142135623730927
 10
543.6786796564403
 20
638.8786796564403
  0
LWPOLYLINE
  5
11F07
330
1F
100
AcDbEntity
  8
0
  6
Continuous
100
AcDbPolyline
 90
        6
 70
     1
 43
0.0
 10
621.8786796564403
 20
635.8786796564403
 42
0.6681786379193005
 10
619.7573593128806
 20
641.0
 10
570.2426406871193
 20
641.0
 42
0.6681786379193003
 10
568.1213203435595
 20
635.8786796564403
 10
592.8786796564403
 20
611.1213203435596
 42
0.4142135623730926
 10
597.1213203435596
 20
611.1213203435596
  0
LWPOLYLINE
  5
11F08
330
1F
100
AcDbEntity
  8
0
  6
Continuous
100
AcDbPolyline
 90
        6
 70
     1
 43
0.0
 10
772.6786796564403
 20
635.8786796564403
 42
0.6681786379192999
 10
770.5573593128806
 20
641.0
 10
721.0426406871192
 20
641.0000000000001
 42
0.6681786379193005
 10
718.9213203435596
 20
635.8786796564404
 10
743.6786796564401
 20
611.1213203435596
 42
0.414213562373093
 10
747.9213203435596
 20
611.1213203435596
  0
LWPOLYLINE
  5
11F09
330
1F
100
AcDbEntity
  8
0
  6
Continuous
100
AcDbPolyline
 90
        6
 70
     1
 43
0.0
 10
871.0786796564402
 20
635.8786796564403
 42
0.6681786379193003
 10
868.9573593128805
 20
641.0
 10
819.442640687119
 20
641.0
 42
0.6681786379193007
 10
817.3213203435594
 20
635.8786796564403
 10
842.0786796564403
 20
611.1213203435596
 42
0.4142135623730926
 10
846.3213203435595
 20
611.1213203435596
  0
LWPOLYLINE
  5
11F0A
330
1F
100
AcDbEntity
  8
0
  6
Continuous
100
AcDbPolyline
 90
        6
 70
     1
 43
0.0
 10
819.7573593128804
 20
609.0
 42
0.6681786379193003
 10
821.8786796564401
 20
614.1213203435596
 10
797.1213203435596
 20
638.8786796564403
 42
0.4142135623730927
 10
792.8786796564401
 20
638.8786796564403
 10
768.1213203435595
 20
614.1213203435596
 42
0.6681786379193003
 10
770.242640687119
 20
609.0
  0
LWPOLYLINE
  5
11F0B
330
1F
100
AcDbEntity
  8
0
  6
Continuous
100
AcDbPolyline
 90
        6
 70
     1
 43
0.0
 10
343.6786796564401
 20
701.1213203435598
 42
0.4142135623731393
 10
347.9213203435596
 20
701.1213203435596
 10
372.6786796564405
 20
725.8786796564406
 42
0.6681786379192718
 10
370.5573593128806
 20
731.0
 10
321.0426406871193
 20
731.0
 42
0.6681786379192715
 10
318.9213203435595
 20
725.8786796564406
  0
LWPOLYLINE
  5
11F0C
330
1F
100
AcDbEntity
  8
0
  6
Continuous
100
AcDbPolyline
 90
        6
 70
     1
 43
0.0
 10
471.0786796564404
 20
725.8786796564406
 42
0.6681786379192718
 10
468.9573593128805
 20
731.0
 10
419.4426406871192
 20
731.0
 42
0.6681786379192715
 10
417.3213203435594
 20
725.8786796564406
 10
442.0786796564404
 20
701.1213203435596
 42
0.4142135623731393
 10
446.3213203435598
 20
701.1213203435598
  0
LWPOLYLINE
  5
11F0D
330
1F
100
AcDbEntity
  8
0
  6
Continuous
100
AcDbPolyline
 90
        6
 70
     1
 43
0.0
 10
368.1213203435595
 20
704.1213203435594
 42
0.6681786379192716
 10
370.2426406871193
 20
699.0
 10
419.7573593128806
 20
699.0
 42
0.6681786379192716
 10
421.8786796564403
 20
704.1213203435596
 10
397.1213203435598
 20
728.8786796564401
 42
0.4142135623731393
 10
392.8786796564402
 20
728.8786796564401
  0
LWPOLYLINE
  5
11F0E
330
1F
100
AcDbEntity
  8
0
  6
Continuous
100
AcDbPolyline
 90
        6
 70
     1
 43
0.0
 10
217.3213203435595
 20
704.1213203435594
 42
0.6681786379192716
 10
219.4426406871194
 20
699.0
 10
268.9573593128807
 20
698.9999999999999
 42
0.6681786379192716
 10
271.0786796564406
 20
704.1213203435593
 10
246.3213203435597
 20
728.8786796564403
 42
0.4142135623731393
 10
242.0786796564402
 20
728.8786796564401
  0
LWPOLYLINE
  5
11F0F
330
1F
100
AcDbEntity
  8
0
  6
Continuous
100
AcDbPolyline
 90
        6
 70
     1
 43
0.0
 10
170.2426406871194
 20
731.0
 42
0.6681786379192715
 10
168.1213203435596
 20
725.8786796564406
 10
192.8786796564404
 20
701.1213203435596
 42
0.4142135623731393
 10
197.1213203435599
 20
701.1213203435598
 10
221.8786796564404
 20
725.8786796564403
 42
0.6681786379192718
 10
219.7573593128808
 20
731.0
  0
LWPOLYLINE
  5
11F10
330
1F
100
AcDbEntity
  8
0
  6
Continuous
100
AcDbPolyline
 90
        6
 70
     1
 43
0.0
 10
646.3213203435596
 20
728.8786796564403
 42
0.4142135623730927
 10
642.0786796564404
 20
728.8786796564403
 10
617.3213203435596
 20
704.1213203435596
 42
0.6681786379193003
 10
619.4426406871193
 20
699.0
 10
668.9573593128807
 20
699.0
 42
0.6681786379193003
 10
671.0786796564404
 20
704.1213203435596
  0
LWPOLYLINE
  5
11F11
330
1F
100
AcDbEntity
  8
0
  6
Continuous
100
AcDbPolyline
 90
        6
 70
     1
 43
0.0
 10
518.9213203435597
 20
704.1213203435596
 42
0.6681786379193
 10
521.0426406871193
 20
699.0
 10
570.5573593128807
 20
699.0
 42
0.6681786379193007
 10
572.6786796564404
 20
704.1213203435596
 10
547.9213203435596
 20
728.8786796564403
 42
0.4142135623730927
 10
543.6786796564403
 20
728.8786796564403
  0
LWPOLYLINE
  5
11F12
330
1F
100
AcDbEntity
  8
0
  6
Continuous
100
AcDbPolyline
 90
        6
 70
     1
 43
0.0
 10
621.8786796564403
 20
725.8786796564403
 42
0.6681786379193005
 10
619.7573593128806
 20
731.0
 10
570.2426406871193
 20
731.0
 42
0.6681786379193003
 10
568.1213203435596
 20
725.8786796564403
 10
592.8786796564403
 20
701.1213203435596
 42
0.4142135623730926
 10
597.1213203435596
 20
701.1213203435596
  0
LWPOLYLINE
  5
11F13
330
1F
100
AcDbEntity
  8
0
  6
Continuous
100
AcDbPolyline
 90
        6
 70
     1
 43
0.0
 10
772.6786796564403
 20
725.8786796564403
 42
0.6681786379192999
 10
770.5573593128806
 20
731.0
 10
721.0426406871192
 20
731.0000000000001
 42
0.6681786379193005
 10
718.9213203435596
 20
725.8786796564404
 10
743.6786796564403
 20
701.1213203435596
 42
0.414213562373093
 10
747.9213203435596
 20
701.1213203435596
  0
LWPOLYLINE
  5
11F14
330
1F
100
AcDbEntity
  8
0
  6
Continuous
100
AcDbPolyline
 90
        6
 70
     1
 43
0.0
 10
871.0786796564402
 20
725.8786796564403
 42
0.6681786379193003
 10
868.9573593128805
 20
731.0
 10
819.442640687119
 20
731.0
 42
0.6681786379193007
 10
817.3213203435594
 20
725.8786796564403
 10
842.0786796564403
 20
701.1213203435596
 42
0.4142135623730926
 10
846.3213203435596
 20
701.1213203435596
  0
LWPOLYLINE
  5
11F15
330
1F
100
AcDbEntity
  8
0
  6
Continuous
100
AcDbPolyline
 90
        6
 70
     1
 43
0.0
 10
819.7573593128804
 20
699.0
 42
0.6681786379193003
 10
821.8786796564401
 20
704.1213203435596
 10
797.1213203435596
 20
728.8786796564403
 42
0.4142135623730927
 10
792.8786796564402
 20
728.8786796564403
 10
768.1213203435595
 20
704.1213203435596
 42
0.6681786379193003
 10
770.2426406871191
 20
699.0
  0
LWPOLYLINE
  5
11F16
330
1F
100
AcDbEntity
  8
0
  6
Continuous
100
AcDbPolyline
 90
        6
 70
     1
 43
0.0
 10
343.6786796564401
 20
791.1213203435599
 42
0.4142135623731393
 10
347.9213203435596
 20
791.1213203435596
 10
372.6786796564405
 20
815.8786796564406
 42
0.6681786379192718
 10
370.5573593128806
 20
821.0
 10
321.0426406871193
 20
821.0
 42
0.6681786379192715
 10
318.9213203435595
 20
815.8786796564406
  0
LWPOLYLINE
  5
11F17
330
1F
100
AcDbEntity
  8
0
  6
Continuous
100
AcDbPolyline
 90
        6
 70
     1
 43
0.0
 10
471.0786796564404
 20
815.8786796564406
 42
0.6681786379192718
 10
468.9573593128805
 20
821.0
 10
419.4426406871192
 20
821.0
 42
0.6681786379192715
 10
417.3213203435594
 20
815.8786796564406
 10
442.0786796564404
 20
791.1213203435596
 42
0.4142135623731393
 10
446.3213203435598
 20
791.1213203435599
  0
LWPOLYLINE
  5
11F18
330
1F
100
AcDbEntity
  8
0
  6
Continuous
100
AcDbPolyline
 90
        6
 70
     1
 43
0.0
 10
368.1213203435595
 20
794.1213203435594
 42
0.6681786379192716
 10
370.2426406871193
 20
789.0
 10
419.7573593128806
 20
789.0
 42
0.6681786379192716
 10
421.8786796564403
 20
794.1213203435596
 10
397.1213203435598
 20
818.87867965644
 42
0.4142135623731393
 10
392.8786796564402
 20
818.87867965644
  0
LWPOLYLINE
  5
11F19
330
1F
100
AcDbEntity
  8
0
  6
Continuous
100
AcDbPolyline
 90
        6
 70
     1
 43
0.0
 10
217.3213203435595
 20
794.1213203435594
 42
0.6681786379192716
 10
219.4426406871194
 20
789.0
 10
268.9573593128807
 20
788.9999999999998
 42
0.6681786379192716
 10
271.0786796564406
 20
794.1213203435593
 10
246.3213203435597
 20
818.8786796564404
 42
0.4142135623731393
 10
242.0786796564402
 20
818.87867965644
  0
LWPOLYLINE
  5
11F1A
330
1F
100
AcDbEntity
  8
0
  6
Continuous
100
AcDbPolyline
 90
        6
 70
     1
 43
0.0
 10
118.9213203435597
 20
794.1213203435594
 42
0.6681786379192716
 10
121.0426406871195
 20
789.0
 10
170.5573593128808
 20
789.0
 42
0.6681786379192719
 10
172.6786796564406
 20
794.1213203435594
 10
147.9213203435597
 20
818.8786796564404
 42
0.4142135623731391
 10
143.6786796564403
 20
818.87867965644
  0
LWPOLYLINE
  5
11F1B
330
1F
100
AcDbEntity
  8
0
  6
Continuous
100
AcDbPolyline
 90
        6
 70
     1
 43
0.0
 10
170.2426406871194
 20
821.0
 42
0.6681786379192715
 10
168.1213203435596
 20
815.8786796564406
 10
192.8786796564404
 20
791.1213203435596
 42
0.4142135623731393
 10
197.1213203435599
 20
791.1213203435599
 10
221.8786796564405
 20
815.8786796564402
 42
0.6681786379192718
 10
219.7573593128808
 20
821.0
  0
LWPOLYLINE
  5
11F1C
330
1F
100
AcDbEntity
  8
0
  6
Continuous
100
AcDbPolyline
 90
        6
 70
     1
 43
0.0
 10
646.3213203435596
 20
818.8786796564404
 42
0.4142135623730927
 10
642.0786796564404
 20
818.8786796564404
 10
617.3213203435596
 20
794.1213203435596
 42
0.6681786379193003
 10
619.4426406871193
 20
789.0
 10
668.9573593128807
 20
789.0
 42
0.6681786379193003
 10
671.0786796564404
 20
794.1213203435596
  0
LWPOLYLINE
  5
11F1D
330
1F
100
AcDbEntity
  8
0
  6
Continuous
100
AcDbPolyline
 90
        6
 70
     1
 43
0.0
 10
518.9213203435597
 20
794.1213203435596
 42
0.6681786379193
 10
521.0426406871193
 20
789.0
 10
570.5573593128807
 20
789.0
 42
0.6681786379193007
 10
572.6786796564404
 20
794.1213203435596
 10
547.9213203435596
 20
818.8786796564404
 42
0.4142135623730927
 10
543.6786796564403
 20
818.8786796564404
  0
LWPOLYLINE
  5
11F1E
330
1F
100
AcDbEntity
  8
0
  6
Continuous
100
AcDbPolyline
 90
        6
 70
     1
 43
0.0
 10
621.8786796564403
 20
815.8786796564402
 42
0.6681786379193005
 10
619.7573593128806
 20
821.0
 10
570.2426406871193
 20
821.0
 42
0.6681786379193003
 10
568.1213203435596
 20
815.8786796564402
 10
592.8786796564403
 20
791.1213203435596
 42
0.4142135623730926
 10
597.1213203435596
 20
791.1213203435596
  0
LWPOLYLINE
  5
11F1F
330
1F
100
AcDbEntity
  8
0
  6
Continuous
100
AcDbPolyline
 90
        6
 70
     1
 43
0.0
 10
772.6786796564403
 20
815.8786796564402
 42
0.6681786379192999
 10
770.5573593128806
 20
821.0
 10
721.0426406871192
 20
821.0
 42
0.6681786379192971
 10
718.9213203435596
 20
815.8786796564404
 10
743.6786796564403
 20
791.1213203435596
 42
0.4142135623730959
 10
747.9213203435596
 20
791.1213203435596
  0
LWPOLYLINE
  5
11F20
330
1F
100
AcDbEntity
  8
0
  6
Continuous
100
AcDbPolyline
 90
        6
 70
     1
 43
0.0
 10
871.0786796564402
 20
815.8786796564402
 42
0.6681786379193003
 10
868.9573593128805
 20
821.0
 10
819.442640687119
 20
821.0
 42
0.6681786379193007
 10
817.3213203435594
 20
815.8786796564402
 10
842.0786796564403
 20
791.1213203435596
 42
0.4142135623730926
 10
846.3213203435596
 20
791.1213203435596
  0
LWPOLYLINE
  5
11F21
330
1F
100
AcDbEntity
  8
0
  6
Continuous
100
AcDbPolyline
 90
        6
 70
     1
 43
0.0
 10
819.7573593128804
 20
789.0
 42
0.6681786379193003
 10
821.8786796564401
 20
794.1213203435596
 10
797.1213203435596
 20
818.8786796564404
 42
0.4142135623730927
 10
792.8786796564402
 20
818.8786796564404
 10
768.1213203435595
 20
794.1213203435596
 42
0.6681786379193003
 10
770.2426406871191
 20
789.0
  0
LWPOLYLINE
  5
11F22
330
1F
100
AcDbEntity
  8
0
  6
Continuous
100
AcDbPolyline
 90
        6
 70
     1
 43
0.0
 10
343.6786796564401
 20
881.1213203435599
 42
0.414213562373141
 10
347.9213203435596
 20
881.1213203435597
 10
372.6786796564405
 20
905.8786796564405
 42
0.6681786379192709
 10
370.5573593128806
 20
911.0
 10
321.0426406871193
 20
911.0
 42
0.6681786379192704
 10
318.9213203435595
 20
905.8786796564405
  0
LWPOLYLINE
  5
11F23
330
1F
100
AcDbEntity
  8
0
  6
Continuous
100
AcDbPolyline
 90
        6
 70
     1
 43
0.0
 10
471.0786796564404
 20
905.8786796564405
 42
0.6681786379192705
 10
468.9573593128805
 20
911.0
 10
419.4426406871192
 20
911.0
 42
0.6681786379192704
 10
417.3213203435594
 20
905.8786796564405
 10
442.0786796564404
 20
881.1213203435597
 42
0.4142135623731412
 10
446.3213203435598
 20
881.1213203435599
  0
LWPOLYLINE
  5
11F24
330
1F
100
AcDbEntity
  8
0
  6
Continuous
100
AcDbPolyline
 90
        6
 70
     1
 43
0.0
 10
368.1213203435595
 20
884.1213203435595
 42
0.6681786379192705
 10
370.2426406871193
 20
879.0
 10
419.7573593128806
 20
879.0
 42
0.6681786379192705
 10
421.8786796564403
 20
884.1213203435597
 10
397.1213203435598
 20
908.87867965644
 42
0.4142135623731411
 10
392.8786796564402
 20
908.87867965644
  0
LWPOLYLINE
  5
11F25
330
1F
100
AcDbEntity
  8
0
  6
Continuous
100
AcDbPolyline
 90
        6
 70
     1
 43
0.0
 10
217.3213203435595
 20
884.1213203435595
 42
0.6681786379192705
 10
219.4426406871194
 20
879.0
 10
268.9573593128807
 20
878.9999999999999
 42
0.6681786379192705
 10
271.0786796564406
 20
884.1213203435593
 10
246.3213203435597
 20
908.8786796564404
 42
0.4142135623731411
 10
242.0786796564402
 20
908.87867965644
  0
LWPOLYLINE
  5
11F26
330
1F
100
AcDbEntity
  8
0
  6
Continuous
100
AcDbPolyline
 90
        6
 70
     1
 43
0.0
 10
118.9213203435597
 20
884.1213203435595
 42
0.6681786379192704
 10
121.0426406871195
 20
879.0
 10
170.5573593128808
 20
879.0
 42
0.6681786379192709
 10
172.6786796564406
 20
884.1213203435595
 10
147.9213203435597
 20
908.8786796564404
 42
0.4142135623731409
 10
143.6786796564403
 20
908.87867965644
  0
LWPOLYLINE
  5
11F27
330
1F
100
AcDbEntity
  8
0
  6
Continuous
100
AcDbPolyline
 90
        6
 70
     1
 43
0.0
 10
170.2426406871194
 20
911.0
 42
0.6681786379192704
 10
168.1213203435596
 20
905.8786796564405
 10
192.8786796564404
 20
881.1213203435597
 42
0.414213562373141
 10
197.1213203435599
 20
881.1213203435599
 10
221.8786796564405
 20
905.8786796564403
 42
0.6681786379192709
 10
219.7573593128808
 20
911.0
  0
LWPOLYLINE
  5
11F28
330
1F
100
AcDbEntity
  8
0
  6
Continuous
100
AcDbPolyline
 90
        6
 70
     1
 43
0.0
 10
646.3213203435596
 20
908.8786796564404
 42
0.4142135623730951
 10
642.0786796564404
 20
908.8786796564404
 10
617.3213203435596
 20
884.1213203435597
 42
0.6681786379192989
 10
619.4426406871193
 20
879.0
 10
668.9573593128807
 20
879.0
 42
0.6681786379192989
 10
671.0786796564404
 20
884.1213203435597
  0
LWPOLYLINE
  5
11F29
330
1F
100
AcDbEntity
  8
0
  6
Continuous
100
AcDbPolyline
 90
        6
 70
     1
 43
0.0
 10
518.9213203435597
 20
884.1213203435597
 42
0.6681786379192982
 10
521.0426406871193
 20
879.0
 10
570.5573593128807
 20
879.0
 42
0.6681786379192996
 10
572.6786796564404
 20
884.1213203435597
 10
547.9213203435596
 20
908.8786796564404
 42
0.4142135623730951
 10
543.6786796564403
 20
908.8786796564404
  0
LWPOLYLINE
  5
11F2A
330
1F
100
AcDbEntity
  8
0
  6
Continuous
100
AcDbPolyline
 90
        6
 70
     1
 43
0.0
 10
621.8786796564403
 20
905.8786796564403
 42
0.6681786379192989
 10
619.7573593128806
 20
911.0
 10
570.2426406871193
 20
911.0
 42
0.6681786379192989
 10
568.1213203435596
 20
905.8786796564403
 10
592.8786796564403
 20
881.1213203435597
 42
0.4142135623730951
 10
597.1213203435596
 20
881.1213203435597
  0
LWPOLYLINE
  5
11F2B
330
1F
100
AcDbEntity
  8
0
  6
Continuous
100
AcDbPolyline
 90
        6
 70
     1
 43
0.0
 10
772.6786796564403
 20
905.8786796564403
 42
0.6681786379192982
 10
770.5573593128806
 20
911.0
 10
721.0426406871192
 20
911.0000000000001
 42
0.6681786379192988
 10
718.9213203435596
 20
905.8786796564405
 10
743.6786796564403
 20
881.1213203435597
 42
0.4142135623730958
 10
747.9213203435596
 20
881.1213203435597
  0
LWPOLYLINE
  5
11F2C
330
1F
100
AcDbEntity
  8
0
  6
Continuous
100
AcDbPolyline
 90
        6
 70
     1
 43
0.0
 10
871.0786796564402
 20
905.8786796564403
 42
0.6681786379192982
 10
868.9573593128805
 20
911.0
 10
819.442640687119
 20
911.0
 42
0.6681786379192997
 10
817.3213203435594
 20
905.8786796564403
 10
842.0786796564403
 20
881.1213203435597
 42
0.414213562373095
 10
846.3213203435596
 20
881.1213203435597
  0
LWPOLYLINE
  5
11F2D
330
1F
100
AcDbEntity
  8
0
  6
Continuous
100
AcDbPolyline
 90
        6
 70
     1
 43
0.0
 10
819.7573593128804
 20
879.0
 42
0.6681786379192989
 10
821.8786796564401
 20
884.1213203435597
 10
797.1213203435596
 20
908.8786796564404
 42
0.4142135623730951
 10
792.8786796564402
 20
908.8786796564404
 10
768.1213203435595
 20
884.1213203435597
 42
0.6681786379192989
 10
770.2426406871191
 20
879.0
  0
LWPOLYLINE
  5
11F4E
330
1F
100
AcDbEntity
  8
0
  6
Continuous
100
AcDbPolyline
 90
        6
 70
     1
 43
0.0
 10
1471.247223250267
 20
1511.5
 10
1467.494446500535
 20
1505.0
 10
1471.247223250267
 20
1498.5
 10
1478.752776749733
 20
1498.5
 10
1482.505553499465
 20
1505.0
 10
1478.752776749733
 20
1511.5
  0
CIRCLE
  5
11F60
330
1F
100
AcDbEntity
  8
0
  6
Continuous
100
AcDbCircle
 10
1475.0
 20
1505.0
 30
0.0
 40
4.0
  0
ENDSEC
  0
SECTION
  2
OBJECTS
  0
DICTIONARY
  5
C
330
0
100
AcDbDictionary
281
     1
  3
ACAD_CIP_PREVIOUS_PRODUCT_INFO
350
10056
  3
ACAD_COLOR
350
10035
  3
ACAD_DETAILVIEWSTYLE
350
1004F
  3
ACAD_GROUP
350
D
  3
ACAD_LAYOUT
350
10036
  3
ACAD_MATERIAL
350
10003
  3
ACAD_MLEADERSTYLE
350
1004B
  3
ACAD_MLINESTYLE
350
17
  3
ACAD_PLOTSETTINGS
350
10051
  3
ACAD_PLOTSTYLENAME
350
10001
  3
ACAD_SCALELIST
350
10039
  3
ACAD_SECTIONVIEWSTYLE
350
1004D
  3
ACAD_TABLESTYLE
350
10037
  3
ACAD_VISUALSTYLE
350
1001C
  3
ACDB_RECOMPOSE_DATA
350
11F87
  3
AcDbVariableDictionary
350
1005B
  0
DICTIONARY
  5
1008C
330
2
100
AcDbDictionary
280
     1
281
     1
  3
ACAD_LAYERSTATES
360
1008D
  0
DICTIONARY
  5
10057
330
50
100
AcDbDictionary
280
     1
281
     1
  3
ADSK_XREC_LAYER_RECONCILED
360
10058
  0
DICTIONARY
  5
10059
330
51
100
AcDbDictionary
280
     1
281
     1
  3
ADSK_XREC_LAYER_RECONCILED
360
1005A
  0
DICTIONARY
  5
10466
330
10465
100
AcDbDictionary
280
     1
281
     1
  0
DICTIONARY
  5
10135
330
1F
100
AcDbDictionary
280
     1
281
     1
  3
ACAD_SORTENTS
360
10136
  0
XRECORD
  5
10056
102
{ACAD_REACTORS
330
C
102
}
330
C
100
AcDbXrecord
280
     1
300
ACD
300
2023
300

  0
DICTIONARY
  5
10035
102
{ACAD_REACTORS
330
C
102
}
330
C
100
AcDbDictionary
281
     1
  0
DICTIONARY
  5
1004F
102
{ACAD_REACTORS
330
C
102
}
330
C
100
AcDbDictionary
281
     1
  3
Imperial24
350
10468
  3
Metric50
350
10050
  0
DICTIONARY
  5
D
330
C
100
AcDbDictionary
281
     1
  0
DICTIONARY
  5
10036
102
{ACAD_REACTORS
330
C
102
}
330
C
100
AcDbDictionary
281
     1
  3
Layout1
350
10053
  3
Model
350
10052
  0
DICTIONARY
  5
10003
102
{ACAD_REACTORS
330
C
102
}
330
C
100
AcDbDictionary
281
     1
  3
ByBlock
350
1000C
  3
ByLayer
350
10004
  3
Global
350
10014
  0
DICTIONARY
  5
1004B
102
{ACAD_REACTORS
330
C
102
}
330
C
100
AcDbDictionary
281
     1
  3
Standard
350
1004C
  0
DICTIONARY
  5
17
330
C
100
AcDbDictionary
281
     1
  3
Standard
350
1006B
  0
DICTIONARY
  5
10051
102
{ACAD_REACTORS
330
C
102
}
330
C
100
AcDbDictionary
281
     1
  0
ACDBDICTIONARYWDFLT
  5
10001
102
{ACAD_REACTORS
330
C
102
}
330
C
100
AcDbDictionary
281
     1
  3
Normal
350
10002
100
AcDbDictionaryWithDefault
340
10002
  0
DICTIONARY
  5
10039
102
{ACAD_REACTORS
330
C
102
}
330
C
100
AcDbDictionary
281
     1
  3
A0
350
1003A
  3
A1
350
1003B
  3
A2
350
1003C
  3
A3
350
1003D
  3
A4
350
1003E
  3
A5
350
1003F
  3
A6
350
10040
  3
A7
350
10041
  3
A8
350
10042
  3
A9
350
10043
  3
B0
350
10044
  3
B1
350
10045
  3
B2
350
10046
  3
B3
350
10047
  3
B4
350
10048
  3
B5
350
10049
  3
B6
350
1004A
  0
DICTIONARY
  5
1004D
102
{ACAD_REACTORS
330
C
102
}
330
C
100
AcDbDictionary
281
     1
  3
Imperial24
350
10467
  3
Metric50
350
1004E
  0
DICTIONARY
  5
10037
102
{ACAD_REACTORS
330
C
102
}
330
C
100
AcDbDictionary
281
     1
  3
Standard
350
10038
  0
DICTIONARY
  5
1001C
102
{ACAD_REACTORS
330
C
102
}
330
C
100
AcDbDictionary
281
     1
  3
2dWireframe
350
10022
  3
Basic
350
10021
  3
Brighten
350
10028
  3
ColorChange
350
1002C
  3
Conceptual
350
10025
  3
Dim
350
10027
  3
EdgeColorOff
350
10034
  3
Facepattern
350
1002B
  3
Flat
350
1001D
  3
FlatWithEdges
350
1001E
  3
Gouraud
350
1001F
  3
GouraudWithEdges
350
10020
  3
Hidden
350
10024
  3
JitterOff
350
10032
  3
Linepattern
350
1002A
  3
OverhangOff
350
10033
  3
Realistic
350
10026
  3
Shaded
350
10031
  3
Shaded with edges
350
10030
  3
Shades of Gray
350
1002D
  3
Sketchy
350
1002E
  3
Thicken
350
10029
  3
Wireframe
350
10023
  3
X-Ray
350
1002F
  0
XRECORD
  5
11F87
102
{ACAD_REACTORS
330
C
102
}
330
C
100
AcDbXrecord
280
     1
 90
        1
330
10038
  0
DICTIONARY
  5
1005B
102
{ACAD_REACTORS
330
C
102
}
330
C
100
AcDbDictionary
281
     1
  3
ANNOALLVISIBLE
350
103C1
  3
CANNOSCALE
350
10061
  3
CMLEADERSTYLE
350
1005D
  3
CTABLESTYLE
350
1005C
  3
CVIEWDETAILSTYLE
350
1005E
  3
CVIEWSECTIONSTYLE
350
1005F
  3
LAYEREVAL
350
10063
  3
LAYERNOTIFY
350
10064
  3
LIGHTINGUNITS
350
10062
  3
MSLTSCALE
350
10060
  0
DICTIONARY
  5
1008D
102
{ACAD_REACTORS
330
1008C
102
}
330
1008C
100
AcDbDictionary
281
     1
  0
XRECORD
  5
10058
102
{ACAD_REACTORS
330
10057
102
}
330
10057
100
AcDbXrecord
280
     1
290
     1
  0
XRECORD
  5
1005A
102
{ACAD_REACTORS
330
10059
102
}
330
10059
100
AcDbXrecord
280
     1
290
     1
  0
SORTENTSTABLE
  5
10136
102
{ACAD_REACTORS
330
10135
102
}
330
10135
100
AcDbSortentsTable
330
1F
331
10455
  5
10456
331
10456
  5
10459
331
10457
  5
1045A
331
10459
  5
10457
331
1045A
  5
1045B
331
1045B
  5
10455
331
116F9
  5
11724
331
11701
  5
11728
331
11712
  5
1181A
331
11793
  5
1181B
331
11794
  5
1181C
331
11795
  5
1181D
331
11796
  5
1181E
331
11797
  5
1181F
331
11798
  5
11820
331
11799
  5
11821
331
1179A
  5
11822
331
1179B
  5
11823
331
1179C
  5
11824
331
1179D
  5
11825
331
1179E
  5
11826
331
1179F
  5
11827
331
117C0
  5
11828
331
117E8
  5
11829
331
117E9
  5
1182A
331
117EA
  5
1182B
331
11A9B
  5
11AD4
331
11AD4
  5
11AF3
331
11AF3
  5
11AF7
331
11AFA
  5
11AFC
331
11AFB
  5
11AFD
331
11B17
  5
11B1C
331
11B1A
  5
11B1D
331
11B6F
  5
11B70
331
11B70
  5
11BD7
331
11BD7
  5
11BD8
331
11BEB
  5
11BEC
331
11BEC
  5
11BED
331
11BED
  5
11BEE
331
11BEE
  5
11BEF
331
11BEF
  5
11BF0
331
11BF9
  5
11BFA
331
11BFA
  5
11BFB
331
11BFD
  5
11BFE
331
11C04
  5
11C05
331
11C05
  5
11C06
331
11C06
  5
11C07
331
11C4B
  5
11C4E
331
11C4D
  5
11CAF
331
11C4E
  5
11CB0
331
11C4F
  5
11CB1
331
11C50
  5
11CB2
331
11C51
  5
11CD7
331
11CAB
  5
11CD8
331
11CAC
  5
11CD9
331
11CAE
  5
11CDA
331
11CAF
  5
11CDB
331
11CB0
  5
11CDC
331
11CB1
  5
11CDD
331
11CB2
  5
11CDE
331
11CFF
  5
11D07
331
11D00
  5
11D0D
331
11D02
  5
11D3E
331
11D03
  5
11D3F
331
11D04
  5
11D54
331
11D05
  5
11D55
331
11D06
  5
11D56
331
11D07
  5
11D57
331
11D0D
  5
11D58
331
11D3E
  5
11D59
331
11D3F
  5
11D6A
331
11D54
  5
11D6B
331
11D55
  5
11D6C
331
11D56
  5
11D80
331
11D57
  5
11D81
331
11D58
  5
11D82
331
11D6A
  5
11D84
331
11D6B
  5
11D8F
331
11D6C
  5
11D91
331
11D80
  5
11DB2
331
11D81
  5
11DB3
331
11D82
  5
11DB4
331
11D83
  5
11DF2
331
11D84
  5
11DF3
331
11DB2
  5
11DF6
331
11DB3
  5
11DF7
331
11DB4
  5
11DF8
331
11E14
  5
11E18
  0
ACDBDETAILVIEWSTYLE
  5
10468
102
{ACAD_REACTORS
330
1004F
102
}
330
1004F
100
AcDbModelDocViewStyle
 70
     0
  3
Imperial24
290
     0
300
Imperial24
 90
        0
100
AcDbDetailViewStyle
 70
     0
 71
     0
 90
        3
 71
     1
340
11
 62
   256
 40
0.24
340
0
 62
   256
 40
0.24
300

 40
0.36
280
     3
 71
     2
340
16
 90
       25
 62
   256
 71
     3
340
11
 62
   256
 40
0.24
 90
        1
 40
0.75
 90
        1
300
%<\AcVar ViewType \f "%tc1">% %<\AcVar ViewDetailId>%\PSCALE %<\AcVar ViewScale \f "%sn">%
 71
     4
340
16
 90
       25
 62
   256
340
16
 90
       25
 62
   256
280
     0
  0
ACDBDETAILVIEWSTYLE
  5
10050
102
{ACAD_REACTORS
330
1004F
102
}
330
1004F
100
AcDbModelDocViewStyle
 70
     0
  3
Metric50
290
     0
300
Metric50
 90
        0
100
AcDbDetailViewStyle
 70
     0
 71
     0
 90
        3
 71
     1
340
11
 62
   256
 40
5.0
340
0
 62
   256
 40
5.0
300

 40
0.0
280
     1
 71
     2
340
16
 90
       25
 62
   256
 71
     3
340
11
 62
   256
 40
5.0
 90
        0
 40
15.0
 90
        1
300
%<\AcVar ViewDetailId>% (%<\AcVar ViewScale \f "%sn">%)
 71
     4
340
16
 90
       25
 62
   256
340
16
 90
       25
 62
   256
280
     0
  0
LAYOUT
  5
10053
102
{ACAD_REACTORS
330
10036
102
}
330
10036
100
AcDbPlotSettings
  1

  2
Brother MFC-J5730DW Printer
  4

  6

 40
0.0
 41
0.0
 42
0.0
 43
0.0
 44
0.0
 45
0.0
 46
0.0
 47
0.0
 48
0.0
 49
0.0
140
0.0
141
0.0
142
1.0
143
1.0
 70
   688
 72
     0
 73
     0
 74
     5
  7

 75
    16
147
1.0
 76
     0
 77
     2
 78
   300
148
0.0
149
0.0
100
AcDbLayout
  1
Layout1
 70
     1
 71
     1
 10
0.0
 20
0.0
 11
12.0
 21
9.0
 12
0.0
 22
0.0
 32
0.0
 14
1.000000000000000E+20
 24
1.000000000000000E+20
 34
1.000000000000000E+20
 15
-1.000000000000000E+20
 25
-1.000000000000000E+20
 35
-1.000000000000000E+20
146
0.0
 13
0.0
 23
0.0
 33
0.0
 16
1.0
 26
0.0
 36
0.0
 17
0.0
 27
1.0
 37
0.0
 76
     0
330
1B
  0
LAYOUT
  5
10052
102
{ACAD_REACTORS
330
10036
102
}
330
10036
100
AcDbPlotSettings
  1

  2
Brother MFC-J5730DW Printer
  4

  6

 40
0.0
 41
0.0
 42
0.0
 43
0.0
 44
0.0
 45
0.0
 46
0.0
 47
0.0
 48
0.0
 49
0.0
140
0.0
141
0.0
142
1.0
143
1.0
 70
  1712
 72
     0
 73
     0
 74
     0
  7

 75
     0
147
1.0
 76
     0
 77
     2
 78
   300
148
0.0
149
0.0
100
AcDbLayout
  1
Model
 70
     1
 71
     0
 10
0.0
 20
0.0
 11
12.0
 21
9.0
 12
0.0
 22
0.0
 32
0.0
 14
0.0
 24
0.0
 34
0.0
 15
0.0
 25
0.0
 35
0.0
146
0.0
 13
0.0
 23
0.0
 33
0.0
 16
1.0
 26
0.0
 36
0.0
 17
0.0
 27
1.0
 37
0.0
 76
     0
330
1F
331
2E
  0
MATERIAL
  5
1000C
102
{ACAD_XDICTIONARY
360
1000D
102
}
102
{ACAD_REACTORS
330
10003
102
}
330
10003
100
AcDbMaterial
  1
ByBlock
 72
     0
 43
0.0208333333333333
 43
0.0
 43
0.0
 43
0.0
 43
0.0
 43
0.0208333333333333
 43
0.0
 43
0.0
 43
0.0
 43
0.0
 43
1.0
 43
0.0
 43
0.0
 43
0.0
 43
0.0
 43
1.0
 77
     0
 47
0.0208333333333333
 47
0.0
 47
0.0
 47
0.0
 47
0.0
 47
0.0208333333333333
 47
0.0
 47
0.0
 47
0.0
 47
0.0
 47
1.0
 47
0.0
 47
0.0
 47
0.0
 47
0.0
 47
1.0
171
     0
 49
0.0208333333333333
 49
0.0
 49
0.0
 49
0.0
 49
0.0
 49
0.0208333333333333
 49
0.0
 49
0.0
 49
0.0
 49
0.0
 49
1.0
 49
0.0
 49
0.0
 49
0.0
 49
0.0
 49
1.0
175
     0
142
0.0208333333333333
142
0.0
142
0.0
142
0.0
142
0.0
142
0.0208333333333333
142
0.0
142
0.0
142
0.0
142
0.0
142
1.0
142
0.0
142
0.0
142
0.0
142
0.0
142
1.0
179
     0
144
0.0208333333333333
144
0.0
144
0.0
144
0.0
144
0.0
144
0.0208333333333333
144
0.0
144
0.0
144
0.0
144
0.0
144
1.0
144
0.0
144
0.0
144
0.0
144
0.0
144
1.0
147
0.0208333333333333
147
0.0
147
0.0
147
0.0
147
0.0
147
0.0208333333333333
147
0.0
147
0.0
147
0.0
147
0.0
147
1.0
147
0.0
147
0.0
147
0.0
147
0.0
147
1.0
  0
MATERIAL
  5
10004
102
{ACAD_XDICTIONARY
360
10005
102
}
102
{ACAD_REACTORS
330
10003
102
}
330
10003
100
AcDbMaterial
  1
ByLayer
 72
     0
 43
0.0208333333333333
 43
0.0
 43
0.0
 43
0.0
 43
0.0
 43
0.0208333333333333
 43
0.0
 43
0.0
 43
0.0
 43
0.0
 43
1.0
 43
0.0
 43
0.0
 43
0.0
 43
0.0
 43
1.0
 77
     0
 47
0.0208333333333333
 47
0.0
 47
0.0
 47
0.0
 47
0.0
 47
0.0208333333333333
 47
0.0
 47
0.0
 47
0.0
 47
0.0
 47
1.0
 47
0.0
 47
0.0
 47
0.0
 47
0.0
 47
1.0
171
     0
 49
0.0208333333333333
 49
0.0
 49
0.0
 49
0.0
 49
0.0
 49
0.0208333333333333
 49
0.0
 49
0.0
 49
0.0
 49
0.0
 49
1.0
 49
0.0
 49
0.0
 49
0.0
 49
0.0
 49
1.0
175
     0
142
0.0208333333333333
142
0.0
142
0.0
142
0.0
142
0.0
142
0.0208333333333333
142
0.0
142
0.0
142
0.0
142
0.0
142
1.0
142
0.0
142
0.0
142
0.0
142
0.0
142
1.0
179
     0
144
0.0208333333333333
144
0.0
144
0.0
144
0.0
144
0.0
144
0.0208333333333333
144
0.0
144
0.0
144
0.0
144
0.0
144
1.0
144
0.0
144
0.0
144
0.0
144
0.0
144
1.0
147
0.0208333333333333
147
0.0
147
0.0
147
0.0
147
0.0
147
0.0208333333333333
147
0.0
147
0.0
147
0.0
147
0.0
147
1.0
147
0.0
147
0.0
147
0.0
147
0.0
147
1.0
  0
MATERIAL
  5
10014
102
{ACAD_XDICTIONARY
360
10015
102
}
102
{ACAD_REACTORS
330
10003
102
}
330
10003
100
AcDbMaterial
  1
Global
 72
     0
 43
0.0208333333333333
 43
0.0
 43
0.0
 43
0.0
 43
0.0
 43
0.0208333333333333
 43
0.0
 43
0.0
 43
0.0
 43
0.0
 43
1.0
 43
0.0
 43
0.0
 43
0.0
 43
0.0
 43
1.0
 77
     0
 47
0.0208333333333333
 47
0.0
 47
0.0
 47
0.0
 47
0.0
 47
0.0208333333333333
 47
0.0
 47
0.0
 47
0.0
 47
0.0
 47
1.0
 47
0.0
 47
0.0
 47
0.0
 47
0.0
 47
1.0
171
     0
 49
0.0208333333333333
 49
0.0
 49
0.0
 49
0.0
 49
0.0
 49
0.0208333333333333
 49
0.0
 49
0.0
 49
0.0
 49
0.0
 49
1.0
 49
0.0
 49
0.0
 49
0.0
 49
0.0
 49
1.0
175
     0
142
0.0208333333333333
142
0.0
142
0.0
142
0.0
142
0.0
142
0.0208333333333333
142
0.0
142
0.0
142
0.0
142
0.0
142
1.0
142
0.0
142
0.0
142
0.0
142
0.0
142
1.0
179
     0
144
0.0208333333333333
144
0.0
144
0.0
144
0.0
144
0.0
144
0.0208333333333333
144
0.0
144
0.0
144
0.0
144
0.0
144
1.0
144
0.0
144
0.0
144
0.0
144
0.0
144
1.0
147
0.0208333333333333
147
0.0
147
0.0
147
0.0
147
0.0
147
0.0208333333333333
147
0.0
147
0.0
147
0.0
147
0.0
147
1.0
147
0.0
147
0.0
147
0.0
147
0.0
147
1.0
  0
MLEADERSTYLE
  5
1004C
102
{ACAD_REACTORS
330
1004B
102
}
330
1004B
100
AcDbMLeaderStyle
179
     2
170
     2
171
     1
172
     0
 90
        2
 40
0.0
 41
0.0
173
     1
 91
-1056964608
340
14
 92
       -2
290
     1
 42
2.0
291
     1
 43
0.36
  3
Standard
 44
4.0
300

342
11
174
     1
178
     6
175
     1
176
     0
 93
-1056964608
 45
4.0
292
     0
297
     0
 46
4.0
 94
-1056964608
 47
1.0
 49
1.0
140
1.0
293
     1
141
0.0
294
     1
177
     0
142
1.0
295
     0
296
     0
143
0.125
271
     0
272
     9
273
     9
298
     0
  0
MLINESTYLE
  5
1006B
102
{ACAD_REACTORS
330
17
102
}
330
17
100
AcDbMlineStyle
  2
STANDARD
 70
     0
  3

 62
   256
 51
90.0
 52
90.0
 71
     2
 49
0.5
 62
   256
  6
BYLAYER
 49
-0.5
 62
   256
  6
BYLAYER
  0
ACDBPLACEHOLDER
  5
10002
102
{ACAD_REACTORS
330
10001
102
}
330
10001
  0
SCALE
  5
1003A
102
{ACAD_REACTORS
330
10039
102
}
330
10039
100
AcDbScale
 70
     0
300
1:1
140
1.0
141
1.0
290
     1
  0
SCALE
  5
1003B
102
{ACAD_REACTORS
330
10039
102
}
330
10039
100
AcDbScale
 70
     0
300
1:2
140
1.0
141
2.0
290
     0
  0
SCALE
  5
1003C
102
{ACAD_REACTORS
330
10039
102
}
330
10039
100
AcDbScale
 70
     0
300
1:4
140
1.0
141
4.0
290
     0
  0
SCALE
  5
1003D
102
{ACAD_REACTORS
330
10039
102
}
330
10039
100
AcDbScale
 70
     0
300
1:5
140
1.0
141
5.0
290
     0
  0
SCALE
  5
1003E
102
{ACAD_REACTORS
330
10039
102
}
330
10039
100
AcDbScale
 70
     0
300
1:8
140
1.0
141
8.0
290
     0
  0
SCALE
  5
1003F
102
{ACAD_REACTORS
330
10039
102
}
330
10039
100
AcDbScale
 70
     0
300
1:10
140
1.0
141
10.0
290
     0
  0
SCALE
  5
10040
102
{ACAD_REACTORS
330
10039
102
}
330
10039
100
AcDbScale
 70
     0
300
1:16
140
1.0
141
16.0
290
     0
  0
SCALE
  5
10041
102
{ACAD_REACTORS
330
10039
102
}
330
10039
100
AcDbScale
 70
     0
300
1:20
140
1.0
141
20.0
290
     0
  0
SCALE
  5
10042
102
{ACAD_REACTORS
330
10039
102
}
330
10039
100
AcDbScale
 70
     0
300
1:30
140
1.0
141
30.0
290
     0
  0
SCALE
  5
10043
102
{ACAD_REACTORS
330
10039
102
}
330
10039
100
AcDbScale
 70
     0
300
1:40
140
1.0
141
40.0
290
     0
  0
SCALE
  5
10044
102
{ACAD_REACTORS
330
10039
102
}
330
10039
100
AcDbScale
 70
     0
300
1:50
140
1.0
141
50.0
290
     0
  0
SCALE
  5
10045
102
{ACAD_REACTORS
330
10039
102
}
330
10039
100
AcDbScale
 70
     0
300
1:100
140
1.0
141
100.0
290
     0
  0
SCALE
  5
10046
102
{ACAD_REACTORS
330
10039
102
}
330
10039
100
AcDbScale
 70
     0
300
2:1
140
2.0
141
1.0
290
     0
  0
SCALE
  5
10047
102
{ACAD_REACTORS
330
10039
102
}
330
10039
100
AcDbScale
 70
     0
300
4:1
140
4.0
141
1.0
290
     0
  0
SCALE
  5
10048
102
{ACAD_REACTORS
330
10039
102
}
330
10039
100
AcDbScale
 70
     0
300
8:1
140
8.0
141
1.0
290
     0
  0
SCALE
  5
10049
102
{ACAD_REACTORS
330
10039
102
}
330
10039
100
AcDbScale
 70
     0
300
10:1
140
10.0
141
1.0
290
     0
  0
SCALE
  5
1004A
102
{ACAD_REACTORS
330
10039
102
}
330
10039
100
AcDbScale
 70
     0
300
100:1
140
100.0
141
1.0
290
     0
  0
ACDBSECTIONVIEWSTYLE
  5
10467
102
{ACAD_REACTORS
330
1004D
102
}
330
1004D
100
AcDbModelDocViewStyle
 70
     0
  3
Imperial24
290
     0
300
Imperial24
 90
        0
100
AcDbSectionViewStyle
 70
     0
 71
     0
 90
       78
 71
     1
340
11
 62
   256
 40
0.24
340
0
340
0
 62
   256
 40
0.24
300
I, O, Q, S, X, Z
 40
0.48
 90
        3
 40
0.18
 90
        1
 71
     2
340
16
 90
       25
 62
   256
340
16
 90
       50
 62
   256
 40
0.24
 40
0.0
 40
0.24
 71
     3
340
11
 62
   256
 40
0.24
 90
        1
 40
0.75
 90
        1
300
%<\AcVar ViewType \f "%tc1">% %<\AcVar ViewSectionStartId>%-%<\AcVar ViewSectionEndId>%\PSCALE %<\AcVar ViewScale \f "%sn">%
 71
     4
 62
   256
 62
   257
300
ANSI31
 40
1.0
 90
        0
290
     0
290
     0
 90
        6
 40
0.0
 40
1.570796326794896
 40
0.2617993877991494
 40
1.308996938995747
 40
-0.2617993877991494
 40
1.832595714594046
  0
ACDBSECTIONVIEWSTYLE
  5
1004E
102
{ACAD_REACTORS
330
1004D
102
}
330
1004D
100
AcDbModelDocViewStyle
 70
     0
  3
Metric50
290
     0
300
Metric50
 90
        0
100
AcDbSectionViewStyle
 70
     0
 71
     0
 90
      102
 71
     1
340
11
 62
   256
 40
5.0
340
0
340
0
 62
   256
 40
5.0
300
I, O, Q, S, X, Z
 40
10.0
 90
        0
 40
2.5
 90
        0
 71
     2
340
16
 90
       25
 62
   256
340
16
 90
       50
 62
   256
 40
5.0
 40
2.5
 40
5.0
 71
     3
340
11
 62
   256
 40
5.0
 90
        0
 40
15.0
 90
        1
300
%<\AcVar ViewSectionStartId>%-%<\AcVar ViewSectionEndId>% (%<\AcVar ViewScale \f "%sn">%)
 71
     4
 62
   256
 62
   257
300
ANSI31
 40
1.0
 90
        0
290
     0
290
     0
 90
        6
 40
0.0
 40
1.570796326794896
 40
0.2617993877991494
 40
1.308996938995747
 40
-0.2617993877991494
 40
1.832595714594044
  0
TABLESTYLE
  5
10038
102
{ACAD_XDICTIONARY
360
10066
102
}
102
{ACAD_REACTORS
330
10037
102
}
330
10037
100
AcDbTableStyle
280
     0
  3
Standard
 70
     0
 71
     0
 40
1.5
 41
1.5
280
     0
281
     0
  7
STANDARD
140
4.5
170
     2
 62
     0
 63
     7
283
     0
 90
      512
 91
        0
  1

274
    -2
284
     1
 64
     0
275
    -2
285
     1
 65
     0
276
    -2
286
     1
 66
     0
277
    -2
287
     1
 67
     0
278
    -2
288
     1
 68
     0
279
    -2
289
     1
 69
     0
  7
STANDARD
140
6.0
170
     5
 62
     0
 63
     7
283
     0
 90
      512
 91
        0
  1

274
    -2
284
     1
 64
     0
275
    -2
285
     1
 65
     0
276
    -2
286
     1
 66
     0
277
    -2
287
     1
 67
     0
278
    -2
288
     1
 68
     0
279
    -2
289
     1
 69
     0
  7
STANDARD
140
4.5
170
     5
 62
     0
 63
     7
283
     0
 90
      512
 91
        0
  1

274
    -2
284
     1
 64
     0
275
    -2
285
     1
 65
     0
276
    -2
286
     1
 66
     0
277
    -2
287
     1
 67
     0
278
    -2
288
     1
 68
     0
279
    -2
289
     1
 69
     0
  0
VISUALSTYLE
  5
10022
102
{ACAD_REACTORS
330
1001C
102
}
330
1001C
100
AcDbVisualStyle
  2
2dWireframe
 70
     4
177
     3
291
     0
 70
    58
 90
        0
176
     1
 90
        2
176
     1
 90
        0
176
     1
 90
        0
176
     1
 40
0.6
176
     1
 40
30.0
176
     1
 62
     7
420
 16777215
176
     1
 90
        1
176
     1
 90
        4
176
     1
 62
     7
176
     1
 62
   257
176
     1
 90
        1
176
     1
 90
        1
176
     1
 40
1.0
176
     1
 90
        0
176
     1
 62
   257
176
     1
 40
1.0
176
     1
 90
        1
176
     1
 90
        6
176
     1
 90
        2
176
     1
 62
     7
176
     1
 90
        5
176
     1
 90
        0
176
     1
 90
        0
176
     1
290
     0
176
     1
 90
        1
176
     1
 40
0.0
176
     1
 90
        0
176
     1
290
     1
176
     1
290
     1
176
     1
290
     0
176
     1
290
     0
176
     1
290
     0
176
     1
290
     0
176
     1
290
     0
176
     1
290
     0
176
     1
290
     0
176
     1
 90
       50
176
     1
 40
0.0
176
     1
 40
1.0
176
     1
 90
        0
176
     1
 62
    18
176
     1
 90
       50
176
     1
 90
        3
176
     1
 62
     5
420
      255
176
     1
290
     0
176
     1
 90
       50
176
     1
 90
       50
176
     1
 90
       50
176
     1
290
     0
176
     1
 90
       50
176
     1
 62
   256
176
     0
 40
1.0
176
     0
 90
        2
176
     1
  1
strokes_ogs.tif
176
     1
290
     0
176
     1
 40
1.0
176
     1
 40
1.0
176
     1
  0
VISUALSTYLE
  5
10021
102
{ACAD_REACTORS
330
1001C
102
}
330
1001C
100
AcDbVisualStyle
  2
Basic
 70
     7
177
     3
291
     1
 70
    58
 90
        1
176
     1
 90
        0
176
     1
 90
        1
176
     1
 90
        0
176
     1
 40
0.6
176
     1
 40
30.0
176
     1
 62
     7
420
 16777215
176
     1
 90
        0
176
     1
 90
        4
176
     1
 62
     7
176
     1
 62
   257
176
     1
 90
        1
176
     1
 90
        1
176
     1
 40
1.0
176
     1
 90
        8
176
     1
 62
     7
176
     1
 40
1.0
176
     1
 90
        1
176
     1
 90
        6
176
     1
 90
        2
176
     1
 62
     7
176
     1
 90
        5
176
     1
 90
        0
176
     1
 90
        0
176
     1
290
     0
176
     1
 90
        1
176
     1
 40
0.0
176
     1
 90
        0
176
     1
290
     0
176
     1
290
     1
176
     1
290
     1
176
     1
290
     0
176
     1
290
     0
176
     1
290
     0
176
     1
290
     0
176
     1
290
     0
176
     1
290
     0
176
     1
 90
       50
176
     1
 40
0.0
176
     1
 40
1.0
176
     1
 90
        0
176
     1
 62
    18
176
     1
 90
       50
176
     1
 90
        3
176
     1
 62
     5
420
      255
176
     1
290
     0
176
     1
 90
       50
176
     1
 90
       50
176
     1
 90
       50
176
     1
290
     0
176
     1
 90
       50
176
     1
 62
   256
176
     0
 40
1.0
176
     0
 90
        2
176
     1
  1
strokes_ogs.tif
176
     1
290
     0
176
     1
 40
1.0
176
     1
 40
1.0
176
     1
  0
VISUALSTYLE
  5
10028
102
{ACAD_REACTORS
330
1001C
102
}
330
1001C
100
AcDbVisualStyle
  2
Brighten
 70
    12
177
     3
291
     1
 70
    58
 90
        2
176
     1
 90
        2
176
     1
 90
        0
176
     1
 90
        0
176
     1
 40
0.6
176
     1
 40
30.0
176
     1
 62
     7
420
 16777215
176
     1
 90
        1
176
     1
 90
        4
176
     1
 62
     7
176
     1
 62
   257
176
     1
 90
        1
176
     1
 90
        1
176
     1
 40
1.0
176
     1
 90
        8
176
     1
 62
     7
176
     1
 40
1.0
176
     1
 90
        1
176
     1
 90
        6
176
     1
 90
        2
176
     1
 62
     7
176
     1
 90
        5
176
     1
 90
        0
176
     1
 90
        0
176
     1
290
     0
176
     1
 90
        1
176
     1
 40
50.0
176
     1
 90
        0
176
     1
290
     0
176
     1
290
     1
176
     1
290
     1
176
     1
290
     0
176
     1
290
     0
176
     1
290
     0
176
     1
290
     0
176
     1
290
     0
176
     1
290
     0
176
     1
 90
       50
176
     1
 40
0.0
176
     1
 40
1.0
176
     1
 90
        0
176
     1
 62
    18
176
     1
 90
       50
176
     1
 90
        3
176
     1
 62
     5
420
      255
176
     1
290
     0
176
     1
 90
       50
176
     1
 90
       50
176
     1
 90
       50
176
     1
290
     0
176
     1
 90
       50
176
     1
 62
   256
176
     0
 40
1.0
176
     0
 90
        2
176
     1
  1
strokes_ogs.tif
176
     1
290
     0
176
     1
 40
1.0
176
     1
 40
1.0
176
     1
  0
VISUALSTYLE
  5
1002C
102
{ACAD_REACTORS
330
1001C
102
}
330
1001C
100
AcDbVisualStyle
  2
ColorChange
 70
    16
177
     3
291
     1
 70
    58
 90
        2
176
     1
 90
        2
176
     1
 90
        3
176
     1
 90
        0
176
     1
 40
0.6
176
     1
 40
30.0
176
     1
 62
     8
420
  8421504
176
     1
 90
        1
176
     1
 90
        4
176
     1
 62
     7
176
     1
 62
   257
176
     1
 90
        1
176
     1
 90
        1
176
     1
 40
1.0
176
     1
 90
        8
176
     1
 62
     8
420
  8421504
176
     1
 40
1.0
176
     1
 90
        1
176
     1
 90
        6
176
     1
 90
        2
176
     1
 62
     7
176
     1
 90
        5
176
     1
 90
        0
176
     1
 90
        0
176
     1
290
     0
176
     1
 90
        1
176
     1
 40
0.0
176
     1
 90
        0
176
     1
290
     0
176
     1
290
     1
176
     1
290
     1
176
     1
290
     0
176
     1
290
     0
176
     1
290
     0
176
     1
290
     0
176
     1
290
     0
176
     1
290
     0
176
     1
 90
       50
176
     1
 40
0.0
176
     1
 40
1.0
176
     1
 90
        0
176
     1
 62
    18
176
     1
 90
       50
176
     1
 90
        3
176
     1
 62
     5
420
      255
176
     1
290
     0
176
     1
 90
       50
176
     1
 90
       50
176
     1
 90
       50
176
     1
290
     0
176
     1
 90
       50
176
     1
 62
   256
176
     0
 40
1.0
176
     0
 90
        2
176
     1
  1
strokes_ogs.tif
176
     1
290
     0
176
     1
 40
1.0
176
     1
 40
1.0
176
     1
  0
VISUALSTYLE
  5
10025
102
{ACAD_REACTORS
330
1001C
102
}
330
1001C
100
AcDbVisualStyle
  2
Conceptual
 70
     9
177
     3
291
     0
 70
    58
 90
        3
176
     1
 90
        2
176
     1
 90
        0
176
     1
 90
        0
176
     1
 40
0.6
176
     1
 40
30.0
176
     1
 62
     7
420
 16777215
176
     1
 90
        2
176
     1
 90
        2
176
     1
 62
     7
176
     1
 62
   257
176
     1
 90
        1
176
     1
 90
        1
176
     1
 40
179.0
176
     1
 90
        8
176
     1
 62
     7
176
     1
 40
1.0
176
     1
 90
        1
176
     1
 90
        6
176
     1
 90
        2
176
     1
 62
     7
176
     1
 90
        3
176
     1
 90
        0
176
     1
 90
        0
176
     1
290
     0
176
     1
 90
        1
176
     1
 40
0.0
176
     1
 90
        0
176
     1
290
     0
176
     1
290
     1
176
     1
290
     1
176
     1
290
     0
176
     1
290
     0
176
     1
290
     0
176
     1
290
     0
176
     1
290
     0
176
     1
290
     0
176
     1
 90
       50
176
     1
 40
0.0
176
     1
 40
1.0
176
     1
 90
        0
176
     1
 62
    18
176
     1
 90
       50
176
     1
 90
        3
176
     1
 62
     5
420
      255
176
     1
290
     0
176
     1
 90
       50
176
     1
 90
       50
176
     1
 90
       50
176
     1
290
     0
176
     1
 90
       50
176
     1
 62
   256
176
     0
 40
1.0
176
     0
 90
        2
176
     1
  1
strokes_ogs.tif
176
     1
290
     0
176
     1
 40
1.0
176
     1
 40
1.0
176
     1
  0
VISUALSTYLE
  5
10027
102
{ACAD_REACTORS
330
1001C
102
}
330
1001C
100
AcDbVisualStyle
  2
Dim
 70
    11
177
     3
291
     1
 70
    58
 90
        2
176
     1
 90
        2
176
     1
 90
        0
176
     1
 90
        0
176
     1
 40
0.6
176
     1
 40
30.0
176
     1
 62
     7
420
 16777215
176
     1
 90
        1
176
     1
 90
        4
176
     1
 62
     7
176
     1
 62
   257
176
     1
 90
        1
176
     1
 90
        1
176
     1
 40
1.0
176
     1
 90
        8
176
     1
 62
     7
176
     1
 40
1.0
176
     1
 90
        1
176
     1
 90
        6
176
     1
 90
        2
176
     1
 62
     7
176
     1
 90
        5
176
     1
 90
        0
176
     1
 90
        0
176
     1
290
     0
176
     1
 90
        1
176
     1
 40
-50.0
176
     1
 90
        0
176
     1
290
     0
176
     1
290
     1
176
     1
290
     1
176
     1
290
     0
176
     1
290
     0
176
     1
290
     0
176
     1
290
     0
176
     1
290
     0
176
     1
290
     0
176
     1
 90
       50
176
     1
 40
0.0
176
     1
 40
1.0
176
     1
 90
        0
176
     1
 62
    18
176
     1
 90
       50
176
     1
 90
        3
176
     1
 62
     5
420
      255
176
     1
290
     0
176
     1
 90
       50
176
     1
 90
       50
176
     1
 90
       50
176
     1
290
     0
176
     1
 90
       50
176
     1
 62
   256
176
     0
 40
1.0
176
     0
 90
        2
176
     1
  1
strokes_ogs.tif
176
     1
290
     0
176
     1
 40
1.0
176
     1
 40
1.0
176
     1
  0
VISUALSTYLE
  5
10034
102
{ACAD_REACTORS
330
1001C
102
}
330
1001C
100
AcDbVisualStyle
  2
EdgeColorOff
 70
    22
177
     3
291
     1
 70
    58
 90
        2
176
     0
 90
        2
176
     0
 90
        0
176
     0
 90
        0
176
     0
 40
0.6
176
     0
 40
30.0
176
     0
 62
     7
420
 16777215
176
     0
 90
        1
176
     0
 90
        4
176
     0
 62
     7
176
     0
 62
   257
176
     0
 90
        1
176
     0
 90
        1
176
     0
 40
1.0
176
     0
 90
        8
176
     2
 62
     7
176
     0
 40
1.0
176
     0
 90
        1
176
     0
 90
        6
176
     0
 90
        2
176
     0
 62
     7
176
     0
 90
        5
176
     0
 90
        0
176
     0
 90
        0
176
     0
290
     0
176
     0
 90
        1
176
     0
 40
0.0
176
     0
 90
        0
176
     0
290
     0
176
     1
290
     1
176
     1
290
     1
176
     1
290
     0
176
     1
290
     0
176
     1
290
     0
176
     1
290
     0
176
     1
290
     0
176
     1
290
     0
176
     1
 90
       50
176
     0
 40
0.0
176
     0
 40
1.0
176
     0
 90
        0
176
     0
 62
    18
176
     0
 90
       50
176
     0
 90
        3
176
     0
 62
     5
420
      255
176
     0
290
     0
176
     1
 90
       50
176
     0
 90
       50
176
     0
 90
       50
176
     0
290
     0
176
     1
 90
       50
176
     0
 62
   256
176
     0
 40
1.0
176
     0
 90
        2
176
     0
  1
strokes_ogs.tif
176
     0
290
     0
176
     1
 40
1.0
176
     0
 40
1.0
176
     0
  0
VISUALSTYLE
  5
1002B
102
{ACAD_REACTORS
330
1001C
102
}
330
1001C
100
AcDbVisualStyle
  2
Facepattern
 70
    15
177
     3
291
     1
 70
    58
 90
        2
176
     1
 90
        2
176
     1
 90
        0
176
     1
 90
        0
176
     1
 40
0.6
176
     1
 40
30.0
176
     1
 62
     7
420
 16777215
176
     1
 90
        1
176
     1
 90
        4
176
     1
 62
     7
176
     1
 62
   257
176
     1
 90
        1
176
     1
 90
        1
176
     1
 40
1.0
176
     1
 90
        8
176
     1
 62
     7
176
     1
 40
1.0
176
     1
 90
        1
176
     1
 90
        6
176
     1
 90
        2
176
     1
 62
     7
176
     1
 90
        5
176
     1
 90
        0
176
     1
 90
        0
176
     1
290
     0
176
     1
 90
        1
176
     1
 40
0.0
176
     1
 90
        0
176
     1
290
     0
176
     1
290
     1
176
     1
290
     1
176
     1
290
     0
176
     1
290
     0
176
     1
290
     0
176
     1
290
     0
176
     1
290
     0
176
     1
290
     0
176
     1
 90
       50
176
     1
 40
0.0
176
     1
 40
1.0
176
     1
 90
        0
176
     1
 62
    18
176
     1
 90
       50
176
     1
 90
        3
176
     1
 62
     5
420
      255
176
     1
290
     0
176
     1
 90
       50
176
     1
 90
       50
176
     1
 90
       50
176
     1
290
     0
176
     1
 90
       50
176
     1
 62
   256
176
     0
 40
1.0
176
     0
 90
        2
176
     1
  1
strokes_ogs.tif
176
     1
290
     0
176
     1
 40
1.0
176
     1
 40
1.0
176
     1
  0
VISUALSTYLE
  5
1001D
102
{ACAD_REACTORS
330
1001C
102
}
330
1001C
100
AcDbVisualStyle
  2
Flat
 70
     0
177
     3
291
     1
 70
    58
 90
        2
176
     1
 90
        1
176
     1
 90
        1
176
     1
 90
        2
176
     1
 40
0.6
176
     1
 40
30.0
176
     1
 62
     7
420
 16777215
176
     1
 90
        0
176
     1
 90
        0
176
     1
 62
     7
176
     1
 62
   257
176
     1
 90
        1
176
     1
 90
        1
176
     1
 40
1.0
176
     1
 90
        8
176
     1
 62
     7
176
     1
 40
1.0
176
     1
 90
        1
176
     1
 90
        6
176
     1
 90
        2
176
     1
 62
     7
176
     1
 90
        5
176
     1
 90
        0
176
     1
 90
        0
176
     1
290
     0
176
     1
 90
       13
176
     1
 40
0.0
176
     1
 90
        0
176
     1
290
     0
176
     1
290
     1
176
     1
290
     1
176
     1
290
     0
176
     1
290
     0
176
     1
290
     0
176
     1
290
     0
176
     1
290
     0
176
     1
290
     0
176
     1
 90
       50
176
     1
 40
0.0
176
     1
 40
1.0
176
     1
 90
        0
176
     1
 62
    18
176
     1
 90
       50
176
     1
 90
        3
176
     1
 62
     5
420
      255
176
     1
290
     0
176
     1
 90
       50
176
     1
 90
       50
176
     1
 90
       50
176
     1
290
     0
176
     1
 90
       50
176
     1
 62
   256
176
     0
 40
1.0
176
     0
 90
        2
176
     1
  1
strokes_ogs.tif
176
     1
290
     0
176
     1
 40
1.0
176
     1
 40
1.0
176
     1
  0
VISUALSTYLE
  5
1001E
102
{ACAD_REACTORS
330
1001C
102
}
330
1001C
100
AcDbVisualStyle
  2
FlatWithEdges
 70
     1
177
     3
291
     1
 70
    58
 90
        2
176
     1
 90
        1
176
     1
 90
        1
176
     1
 90
        2
176
     1
 40
0.6
176
     1
 40
30.0
176
     1
 62
     7
420
 16777215
176
     1
 90
        1
176
     1
 90
        0
176
     1
 62
     7
176
     1
 62
   257
176
     1
 90
        1
176
     1
 90
        1
176
     1
 40
1.0
176
     1
 90
        0
176
     1
 62
   257
176
     1
 40
1.0
176
     1
 90
        1
176
     1
 90
        6
176
     1
 90
        2
176
     1
 62
     7
176
     1
 90
        5
176
     1
 90
        0
176
     1
 90
        0
176
     1
290
     0
176
     1
 90
       13
176
     1
 40
0.0
176
     1
 90
        0
176
     1
290
     0
176
     1
290
     1
176
     1
290
     1
176
     1
290
     0
176
     1
290
     0
176
     1
290
     0
176
     1
290
     0
176
     1
290
     0
176
     1
290
     0
176
     1
 90
       50
176
     1
 40
0.0
176
     1
 40
1.0
176
     1
 90
        0
176
     1
 62
    18
176
     1
 90
       50
176
     1
 90
        3
176
     1
 62
     5
420
      255
176
     1
290
     0
176
     1
 90
       50
176
     1
 90
       50
176
     1
 90
       50
176
     1
290
     0
176
     1
 90
       50
176
     1
 62
   256
176
     0
 40
1.0
176
     0
 90
        2
176
     1
  1
strokes_ogs.tif
176
     1
290
     0
176
     1
 40
1.0
176
     1
 40
1.0
176
     1
  0
VISUALSTYLE
  5
1001F
102
{ACAD_REACTORS
330
1001C
102
}
330
1001C
100
AcDbVisualStyle
  2
Gouraud
 70
     2
177
     3
291
     1
 70
    58
 90
        2
176
     1
 90
        2
176
     1
 90
        1
176
     1
 90
        2
176
     1
 40
0.6
176
     1
 40
30.0
176
     1
 62
     7
420
 16777215
176
     1
 90
        0
176
     1
 90
        0
176
     1
 62
     7
176
     1
 62
   257
176
     1
 90
        1
176
     1
 90
        1
176
     1
 40
1.0
176
     1
 90
        0
176
     1
 62
     7
176
     1
 40
1.0
176
     1
 90
        1
176
     1
 90
        6
176
     1
 90
        2
176
     1
 62
     7
176
     1
 90
        5
176
     1
 90
        0
176
     1
 90
        0
176
     1
290
     0
176
     1
 90
       13
176
     1
 40
0.0
176
     1
 90
        0
176
     1
290
     0
176
     1
290
     1
176
     1
290
     1
176
     1
290
     0
176
     1
290
     0
176
     1
290
     0
176
     1
290
     0
176
     1
290
     0
176
     1
290
     0
176
     1
 90
       50
176
     1
 40
0.0
176
     1
 40
1.0
176
     1
 90
        0
176
     1
 62
    18
176
     1
 90
       50
176
     1
 90
        3
176
     1
 62
     5
420
      255
176
     1
290
     0
176
     1
 90
       50
176
     1
 90
       50
176
     1
 90
       50
176
     1
290
     0
176
     1
 90
       50
176
     1
 62
   256
176
     0
 40
1.0
176
     0
 90
        2
176
     1
  1
strokes_ogs.tif
176
     1
290
     0
176
     1
 40
1.0
176
     1
 40
1.0
176
     1
  0
VISUALSTYLE
  5
10020
102
{ACAD_REACTORS
330
1001C
102
}
330
1001C
100
AcDbVisualStyle
  2
GouraudWithEdges
 70
     3
177
     3
291
     1
 70
    58
 90
        2
176
     1
 90
        2
176
     1
 90
        1
176
     1
 90
        2
176
     1
 40
0.6
176
     1
 40
30.0
176
     1
 62
     7
420
 16777215
176
     1
 90
        1
176
     1
 90
        0
176
     1
 62
     7
176
     1
 62
   257
176
     1
 90
        1
176
     1
 90
        1
176
     1
 40
1.0
176
     1
 90
        0
176
     1
 62
   257
176
     1
 40
1.0
176
     1
 90
        1
176
     1
 90
        6
176
     1
 90
        2
176
     1
 62
     7
176
     1
 90
        5
176
     1
 90
        0
176
     1
 90
        0
176
     1
290
     0
176
     1
 90
       13
176
     1
 40
0.0
176
     1
 90
        0
176
     1
290
     0
176
     1
290
     1
176
     1
290
     1
176
     1
290
     0
176
     1
290
     0
176
     1
290
     0
176
     1
290
     0
176
     1
290
     0
176
     1
290
     0
176
     1
 90
       50
176
     1
 40
0.0
176
     1
 40
1.0
176
     1
 90
        0
176
     1
 62
    18
176
     1
 90
       50
176
     1
 90
        3
176
     1
 62
     5
420
      255
176
     1
290
     0
176
     1
 90
       50
176
     1
 90
       50
176
     1
 90
       50
176
     1
290
     0
176
     1
 90
       50
176
     1
 62
   256
176
     0
 40
1.0
176
     0
 90
        2
176
     1
  1
strokes_ogs.tif
176
     1
290
     0
176
     1
 40
1.0
176
     1
 40
1.0
176
     1
  0
VISUALSTYLE
  5
10024
102
{ACAD_REACTORS
330
1001C
102
}
330
1001C
100
AcDbVisualStyle
  2
Hidden
 70
     6
177
     3
291
     0
 70
    58
 90
        1
176
     1
 90
        2
176
     1
 90
        2
176
     1
 90
        0
176
     1
 40
0.6
176
     1
 40
30.0
176
     1
 62
     7
420
 16777215
176
     1
 90
        2
176
     1
 90
        2
176
     1
 62
     7
176
     1
 62
   257
176
     1
 90
        2
176
     1
 90
        1
176
     1
 40
40.0
176
     1
 90
        0
176
     1
 62
   257
176
     1
 40
1.0
176
     1
 90
        1
176
     1
 90
        6
176
     1
 90
        2
176
     1
 62
     7
176
     1
 90
        3
176
     1
 90
        0
176
     1
 90
        0
176
     1
290
     0
176
     1
 90
        1
176
     1
 40
0.0
176
     1
 90
        0
176
     1
290
     0
176
     1
290
     1
176
     1
290
     1
176
     1
290
     0
176
     1
290
     0
176
     1
290
     0
176
     1
290
     0
176
     1
290
     0
176
     1
290
     0
176
     1
 90
       50
176
     1
 40
0.0
176
     1
 40
1.0
176
     1
 90
        0
176
     1
 62
    18
176
     1
 90
       50
176
     1
 90
        3
176
     1
 62
     5
420
      255
176
     1
290
     0
176
     1
 90
       50
176
     1
 90
       50
176
     1
 90
       50
176
     1
290
     0
176
     1
 90
       50
176
     1
 62
   256
176
     0
 40
1.0
176
     0
 90
        2
176
     1
  1
strokes_ogs.tif
176
     1
290
     0
176
     1
 40
1.0
176
     1
 40
1.0
176
     1
  0
VISUALSTYLE
  5
10032
102
{ACAD_REACTORS
330
1001C
102
}
330
1001C
100
AcDbVisualStyle
  2
JitterOff
 70
    20
177
     3
291
     1
 70
    58
 90
        2
176
     0
 90
        2
176
     0
 90
        0
176
     0
 90
        0
176
     0
 40
0.6
176
     0
 40
30.0
176
     0
 62
     7
420
 16777215
176
     0
 90
        1
176
     0
 90
        4
176
     0
 62
     7
176
     0
 62
   257
176
     0
 90
        1
176
     0
 90
        1
176
     0
 40
1.0
176
     0
 90
       10
176
     2
 62
     7
176
     0
 40
1.0
176
     0
 90
        1
176
     0
 90
        6
176
     0
 90
        2
176
     0
 62
     7
176
     0
 90
        5
176
     0
 90
        0
176
     0
 90
        0
176
     0
290
     0
176
     0
 90
        1
176
     0
 40
0.0
176
     0
 90
        0
176
     0
290
     0
176
     1
290
     1
176
     1
290
     1
176
     1
290
     0
176
     1
290
     0
176
     1
290
     0
176
     1
290
     0
176
     1
290
     0
176
     1
290
     0
176
     1
 90
       50
176
     0
 40
0.0
176
     0
 40
1.0
176
     0
 90
        0
176
     0
 62
    18
176
     0
 90
       50
176
     0
 90
        3
176
     0
 62
     5
420
      255
176
     0
290
     0
176
     1
 90
       50
176
     0
 90
       50
176
     0
 90
       50
176
     0
290
     0
176
     1
 90
       50
176
     0
 62
   256
176
     0
 40
1.0
176
     0
 90
        2
176
     0
  1
strokes_ogs.tif
176
     0
290
     0
176
     1
 40
1.0
176
     0
 40
1.0
176
     0
  0
VISUALSTYLE
  5
1002A
102
{ACAD_REACTORS
330
1001C
102
}
330
1001C
100
AcDbVisualStyle
  2
Linepattern
 70
    14
177
     3
291
     1
 70
    58
 90
        2
176
     1
 90
        2
176
     1
 90
        0
176
     1
 90
        0
176
     1
 40
0.6
176
     1
 40
30.0
176
     1
 62
     7
420
 16777215
176
     1
 90
        1
176
     1
 90
        4
176
     1
 62
     7
176
     1
 62
   257
176
     1
 90
        7
176
     1
 90
        7
176
     1
 40
1.0
176
     1
 90
        8
176
     1
 62
     7
176
     1
 40
1.0
176
     1
 90
        1
176
     1
 90
        6
176
     1
 90
        2
176
     1
 62
     7
176
     1
 90
        5
176
     1
 90
        0
176
     1
 90
        0
176
     1
290
     0
176
     1
 90
        1
176
     1
 40
0.0
176
     1
 90
        0
176
     1
290
     0
176
     1
290
     1
176
     1
290
     1
176
     1
290
     0
176
     1
290
     0
176
     1
290
     0
176
     1
290
     0
176
     1
290
     0
176
     1
290
     0
176
     1
 90
       50
176
     1
 40
0.0
176
     1
 40
1.0
176
     1
 90
        0
176
     1
 62
    18
176
     1
 90
       50
176
     1
 90
        3
176
     1
 62
     5
420
      255
176
     1
290
     0
176
     1
 90
       50
176
     1
 90
       50
176
     1
 90
       50
176
     1
290
     0
176
     1
 90
       50
176
     1
 62
   256
176
     0
 40
1.0
176
     0
 90
        2
176
     1
  1
strokes_ogs.tif
176
     1
290
     0
176
     1
 40
1.0
176
     1
 40
1.0
176
     1
  0
VISUALSTYLE
  5
10033
102
{ACAD_REACTORS
330
1001C
102
}
330
1001C
100
AcDbVisualStyle
  2
OverhangOff
 70
    21
177
     3
291
     1
 70
    58
 90
        2
176
     0
 90
        2
176
     0
 90
        0
176
     0
 90
        0
176
     0
 40
0.6
176
     0
 40
30.0
176
     0
 62
     7
420
 16777215
176
     0
 90
        1
176
     0
 90
        4
176
     0
 62
     7
176
     0
 62
   257
176
     0
 90
        1
176
     0
 90
        1
176
     0
 40
1.0
176
     0
 90
        9
176
     2
 62
     7
176
     0
 40
1.0
176
     0
 90
        1
176
     0
 90
        6
176
     0
 90
        2
176
     0
 62
     7
176
     0
 90
        5
176
     0
 90
        0
176
     0
 90
        0
176
     0
290
     0
176
     0
 90
        1
176
     0
 40
0.0
176
     0
 90
        0
176
     0
290
     0
176
     1
290
     1
176
     1
290
     1
176
     1
290
     0
176
     1
290
     0
176
     1
290
     0
176
     1
290
     0
176
     1
290
     0
176
     1
290
     0
176
     1
 90
       50
176
     0
 40
0.0
176
     0
 40
1.0
176
     0
 90
        0
176
     0
 62
    18
176
     0
 90
       50
176
     0
 90
        3
176
     0
 62
     5
420
      255
176
     0
290
     0
176
     1
 90
       50
176
     0
 90
       50
176
     0
 90
       50
176
     0
290
     0
176
     1
 90
       50
176
     0
 62
   256
176
     0
 40
1.0
176
     0
 90
        2
176
     0
  1
strokes_ogs.tif
176
     0
290
     0
176
     1
 40
1.0
176
     0
 40
1.0
176
     0
  0
VISUALSTYLE
  5
10026
102
{ACAD_REACTORS
330
1001C
102
}
330
1001C
100
AcDbVisualStyle
  2
Realistic
 70
     8
177
     3
291
     0
 70
    58
 90
        2
176
     1
 90
        3
176
     1
 90
        0
176
     1
 90
        2
176
     1
 40
0.6
176
     1
 40
30.0
176
     1
 62
     7
420
 16777215
176
     1
 90
        0
176
     1
 90
        0
176
     1
 62
     7
176
     1
 62
   257
176
     1
 90
        1
176
     1
 90
        1
176
     1
 40
1.0
176
     1
 90
        8
176
     1
 62
   257
176
     1
 40
1.0
176
     1
 90
        1
176
     1
 90
        6
176
     1
 90
        2
176
     1
 62
     7
176
     1
 90
        3
176
     1
 90
        0
176
     1
 90
        0
176
     1
290
     0
176
     1
 90
       13
176
     1
 40
0.0
176
     1
 90
        0
176
     1
290
     0
176
     1
290
     1
176
     1
290
     1
176
     1
290
     0
176
     1
290
     0
176
     1
290
     0
176
     1
290
     0
176
     1
290
     0
176
     1
290
     0
176
     1
 90
       50
176
     1
 40
0.0
176
     1
 40
1.0
176
     1
 90
        0
176
     1
 62
    18
176
     1
 90
       50
176
     1
 90
        3
176
     1
 62
     5
420
      255
176
     1
290
     0
176
     1
 90
       50
176
     1
 90
       50
176
     1
 90
       50
176
     1
290
     0
176
     1
 90
       50
176
     1
 62
   256
176
     0
 40
1.0
176
     0
 90
        2
176
     1
  1
strokes_ogs.tif
176
     1
290
     0
176
     1
 40
1.0
176
     1
 40
1.0
176
     1
  0
VISUALSTYLE
  5
10031
102
{ACAD_REACTORS
330
1001C
102
}
330
1001C
100
AcDbVisualStyle
  2
Shaded
 70
    27
177
     3
291
     0
 70
    58
 90
        2
176
     1
 90
        2
176
     1
 90
        1
176
     1
 90
        2
176
     1
 40
0.6
176
     1
 40
30.0
176
     1
 62
     7
420
 16777215
176
     1
 90
        0
176
     1
 90
        4
176
     1
 62
     7
176
     1
 62
   257
176
     1
 90
        1
176
     1
 90
        1
176
     1
 40
1.0
176
     1
 90
        8
176
     1
 62
   257
176
     1
 40
1.0
176
     1
 90
        1
176
     1
 90
        6
176
     1
 90
        2
176
     1
 62
     8
420
  7895160
176
     1
 90
        3
176
     1
 90
        0
176
     1
 90
        0
176
     1
290
     0
176
     1
 90
        5
176
     1
 40
0.0
176
     1
 90
        0
176
     1
290
     0
176
     1
290
     1
176
     1
290
     1
176
     1
290
     0
176
     1
290
     0
176
     1
290
     0
176
     1
290
     0
176
     1
290
     0
176
     1
290
     0
176
     1
 90
       50
176
     1
 40
0.0
176
     1
 40
1.0
176
     1
 90
        0
176
     1
 62
    18
176
     1
 90
       50
176
     1
 90
        3
176
     1
 62
     5
420
      255
176
     1
290
     0
176
     1
 90
       50
176
     1
 90
       50
176
     1
 90
       50
176
     1
290
     0
176
     1
 90
       50
176
     1
 62
   256
176
     0
 40
1.0
176
     0
 90
        2
176
     1
  1
strokes_ogs.tif
176
     1
290
     0
176
     1
 40
1.0
176
     1
 40
1.0
176
     1
  0
VISUALSTYLE
  5
10030
102
{ACAD_REACTORS
330
1001C
102
}
330
1001C
100
AcDbVisualStyle
  2
Shaded with edges
 70
    26
177
     3
291
     0
 70
    58
 90
        2
176
     1
 90
        2
176
     1
 90
        1
176
     1
 90
        2
176
     1
 40
0.6
176
     1
 40
30.0
176
     1
 62
     7
420
 16777215
176
     1
 90
        1
176
     1
 90
        2
176
     1
 62
     7
176
     1
 62
   257
176
     1
 90
        2
176
     1
 90
        1
176
     1
 40
1.0
176
     1
 90
        8
176
     1
 62
   257
176
     1
 40
1.0
176
     1
 90
        1
176
     1
 90
        6
176
     1
 90
        2
176
     1
 62
     7
176
     1
 90
        3
176
     1
 90
        0
176
     1
 90
        0
176
     1
290
     0
176
     1
 90
        5
176
     1
 40
0.0
176
     1
 90
        0
176
     1
290
     0
176
     1
290
     1
176
     1
290
     1
176
     1
290
     0
176
     1
290
     0
176
     1
290
     0
176
     1
290
     0
176
     1
290
     0
176
     1
290
     0
176
     1
 90
       50
176
     1
 40
0.0
176
     1
 40
1.0
176
     1
 90
        0
176
     1
 62
    18
176
     1
 90
       50
176
     1
 90
        3
176
     1
 62
     5
420
      255
176
     1
290
     0
176
     1
 90
       50
176
     1
 90
       50
176
     1
 90
       50
176
     1
290
     0
176
     1
 90
       50
176
     1
 62
   256
176
     0
 40
1.0
176
     0
 90
        2
176
     1
  1
strokes_ogs.tif
176
     1
290
     0
176
     1
 40
1.0
176
     1
 40
1.0
176
     1
  0
VISUALSTYLE
  5
1002D
102
{ACAD_REACTORS
330
1001C
102
}
330
1001C
100
AcDbVisualStyle
  2
Shades of Gray
 70
    23
177
     3
291
     0
 70
    58
 90
        2
176
     1
 90
        2
176
     1
 90
        3
176
     1
 90
        0
176
     1
 40
0.6
176
     1
 40
30.0
176
     1
 62
     7
420
 16777215
176
     1
 90
        2
176
     1
 90
        2
176
     1
 62
     7
176
     1
 62
     7
176
     1
 90
        1
176
     1
 90
        1
176
     1
 40
40.0
176
     1
 90
        8
176
     1
 62
     7
176
     1
 40
1.0
176
     1
 90
        1
176
     1
 90
        6
176
     1
 90
        2
176
     1
 62
     7
176
     1
 90
        3
176
     1
 90
        0
176
     1
 90
        0
176
     1
290
     0
176
     1
 90
        1
176
     1
 40
0.0
176
     1
 90
        0
176
     1
290
     0
176
     1
290
     1
176
     1
290
     1
176
     1
290
     0
176
     1
290
     0
176
     1
290
     0
176
     1
290
     0
176
     1
290
     0
176
     1
290
     0
176
     1
 90
       50
176
     1
 40
0.0
176
     1
 40
1.0
176
     1
 90
        0
176
     1
 62
    18
176
     1
 90
       50
176
     1
 90
        3
176
     1
 62
     5
420
      255
176
     1
290
     0
176
     1
 90
       50
176
     1
 90
       50
176
     1
 90
       50
176
     1
290
     0
176
     1
 90
       50
176
     1
 62
   256
176
     0
 40
1.0
176
     0
 90
        2
176
     1
  1
strokes_ogs.tif
176
     1
290
     0
176
     1
 40
1.0
176
     1
 40
1.0
176
     1
  0
VISUALSTYLE
  5
1002E
102
{ACAD_REACTORS
330
1001C
102
}
330
1001C
100
AcDbVisualStyle
  2
Sketchy
 70
    24
177
     3
291
     0
 70
    58
 90
        1
176
     1
 90
        2
176
     1
 90
        2
176
     1
 90
        0
176
     1
 40
0.6
176
     1
 40
30.0
176
     1
 62
     7
420
 16777215
176
     1
 90
        2
176
     1
 90
        2
176
     1
 62
     7
176
     1
 62
     7
176
     1
 90
        1
176
     1
 90
        1
176
     1
 40
40.0
176
     1
 90
       11
176
     1
 62
     7
176
     1
 40
1.0
176
     1
 90
        1
176
     1
 90
        6
176
     1
 90
        2
176
     1
 62
     7
176
     1
 90
        6
176
     1
 90
        0
176
     1
 90
        0
176
     1
290
     0
176
     1
 90
        1
176
     1
 40
0.0
176
     1
 90
        0
176
     1
290
     0
176
     1
290
     1
176
     1
290
     1
176
     1
290
     0
176
     1
290
     0
176
     1
290
     0
176
     1
290
     0
176
     1
290
     0
176
     1
290
     0
176
     1
 90
       50
176
     1
 40
0.0
176
     1
 40
1.0
176
     1
 90
        0
176
     1
 62
    18
176
     1
 90
       50
176
     1
 90
        3
176
     1
 62
     5
420
      255
176
     1
290
     0
176
     1
 90
       50
176
     1
 90
       50
176
     1
 90
       50
176
     1
290
     0
176
     1
 90
       50
176
     1
 62
   256
176
     0
 40
1.0
176
     0
 90
        2
176
     1
  1
strokes_ogs.tif
176
     1
290
     0
176
     1
 40
1.0
176
     1
 40
1.0
176
     1
  0
VISUALSTYLE
  5
10029
102
{ACAD_REACTORS
330
1001C
102
}
330
1001C
100
AcDbVisualStyle
  2
Thicken
 70
    13
177
     3
291
     1
 70
    58
 90
        2
176
     1
 90
        2
176
     1
 90
        0
176
     1
 90
        0
176
     1
 40
0.6
176
     1
 40
30.0
176
     1
 62
     7
420
 16777215
176
     1
 90
        1
176
     1
 90
        4
176
     1
 62
     7
176
     1
 62
   257
176
     1
 90
        1
176
     1
 90
        1
176
     1
 40
1.0
176
     1
 90
       12
176
     1
 62
     7
176
     1
 40
1.0
176
     1
 90
        1
176
     1
 90
        6
176
     1
 90
        2
176
     1
 62
     7
176
     1
 90
        5
176
     1
 90
        0
176
     1
 90
        0
176
     1
290
     0
176
     1
 90
        1
176
     1
 40
0.0
176
     1
 90
        0
176
     1
290
     0
176
     1
290
     1
176
     1
290
     1
176
     1
290
     0
176
     1
290
     0
176
     1
290
     0
176
     1
290
     0
176
     1
290
     0
176
     1
290
     0
176
     1
 90
       50
176
     1
 40
0.0
176
     1
 40
1.0
176
     1
 90
        0
176
     1
 62
    18
176
     1
 90
       50
176
     1
 90
        3
176
     1
 62
     5
420
      255
176
     1
290
     0
176
     1
 90
       50
176
     1
 90
       50
176
     1
 90
       50
176
     1
290
     0
176
     1
 90
       50
176
     1
 62
   256
176
     0
 40
1.0
176
     0
 90
        2
176
     1
  1
strokes_ogs.tif
176
     1
290
     0
176
     1
 40
1.0
176
     1
 40
1.0
176
     1
  0
VISUALSTYLE
  5
10023
102
{ACAD_REACTORS
330
1001C
102
}
330
1001C
100
AcDbVisualStyle
  2
Wireframe
 70
     5
177
     3
291
     0
 70
    58
 90
        0
176
     1
 90
        2
176
     1
 90
        0
176
     1
 90
        0
176
     1
 40
0.6
176
     1
 40
30.0
176
     1
 62
     7
420
 16777215
176
     1
 90
        1
176
     1
 90
        4
176
     1
 62
     7
176
     1
 62
   257
176
     1
 90
        1
176
     1
 90
        1
176
     1
 40
1.0
176
     1
 90
        0
176
     1
 62
   257
176
     1
 40
1.0
176
     1
 90
        1
176
     1
 90
        6
176
     1
 90
        2
176
     1
 62
     7
176
     1
 90
        3
176
     1
 90
        0
176
     1
 90
        0
176
     1
290
     0
176
     1
 90
        1
176
     1
 40
0.0
176
     1
 90
        0
176
     1
290
     0
176
     1
290
     1
176
     1
290
     1
176
     1
290
     0
176
     1
290
     0
176
     1
290
     0
176
     1
290
     0
176
     1
290
     0
176
     1
290
     0
176
     1
 90
       50
176
     1
 40
0.0
176
     1
 40
1.0
176
     1
 90
        0
176
     1
 62
    18
176
     1
 90
       50
176
     1
 90
        3
176
     1
 62
     5
420
      255
176
     1
290
     0
176
     1
 90
       50
176
     1
 90
       50
176
     1
 90
       50
176
     1
290
     0
176
     1
 90
       50
176
     1
 62
   256
176
     0
 40
1.0
176
     0
 90
        2
176
     1
  1
strokes_ogs.tif
176
     1
290
     0
176
     1
 40
1.0
176
     1
 40
1.0
176
     1
  0
VISUALSTYLE
  5
1002F
102
{ACAD_REACTORS
330
1001C
102
}
330
1001C
100
AcDbVisualStyle
  2
X-Ray
 70
    25
177
     3
291
     0
 70
    58
 90
        2
176
     1
 90
        2
176
     1
 90
        1
176
     1
 90
        1
176
     1
 40
0.5
176
     1
 40
30.0
176
     1
 62
     7
420
 16777215
176
     1
 90
        1
176
     1
 90
        0
176
     1
 62
     7
176
     1
 62
   257
176
     1
 90
        1
176
     1
 90
        1
176
     1
 40
1.0
176
     1
 90
        8
176
     1
 62
     7
176
     1
 40
1.0
176
     1
 90
        1
176
     1
 90
        6
176
     1
 90
        2
176
     1
 62
     7
176
     1
 90
        3
176
     1
 90
        0
176
     1
 90
        0
176
     1
290
     0
176
     1
 90
       13
176
     1
 40
0.0
176
     1
 90
        0
176
     1
290
     0
176
     1
290
     1
176
     1
290
     1
176
     1
290
     0
176
     1
290
     0
176
     1
290
     0
176
     1
290
     0
176
     1
290
     0
176
     1
290
     0
176
     1
 90
       50
176
     1
 40
0.0
176
     1
 40
1.0
176
     1
 90
        0
176
     1
 62
    18
176
     1
 90
       50
176
     1
 90
        3
176
     1
 62
     5
420
      255
176
     1
290
     0
176
     1
 90
       50
176
     1
 90
       50
176
     1
 90
       50
176
     1
290
     0
176
     1
 90
       50
176
     1
 62
   256
176
     0
 40
1.0
176
     0
 90
        2
176
     1
  1
strokes_ogs.tif
176
     1
290
     0
176
     1
 40
1.0
176
     1
 40
1.0
176
     1
  0
DICTIONARYVAR
  5
103C1
102
{ACAD_REACTORS
330
1005B
102
}
330
1005B
100
DictionaryVariables
280
     0
  1
0
  0
DICTIONARYVAR
  5
10061
102
{ACAD_REACTORS
330
1005B
102
}
330
1005B
100
DictionaryVariables
280
     0
  1
1:1
  0
DICTIONARYVAR
  5
1005D
102
{ACAD_REACTORS
330
1005B
102
}
330
1005B
100
DictionaryVariables
280
     0
  1
STANDARD
  0
DICTIONARYVAR
  5
1005C
102
{ACAD_REACTORS
330
1005B
102
}
330
1005B
100
DictionaryVariables
280
     0
  1
STANDARD
  0
DICTIONARYVAR
  5
1005E
102
{ACAD_REACTORS
330
1005B
102
}
330
1005B
100
DictionaryVariables
280
     0
  1
Metric50
  0
DICTIONARYVAR
  5
1005F
102
{ACAD_REACTORS
330
1005B
102
}
330
1005B
100
DictionaryVariables
280
     0
  1
Metric50
  0
DICTIONARYVAR
  5
10063
102
{ACAD_REACTORS
330
1005B
102
}
330
1005B
100
DictionaryVariables
280
     0
  1
1
  0
DICTIONARYVAR
  5
10064
102
{ACAD_REACTORS
330
1005B
102
}
330
1005B
100
DictionaryVariables
280
     0
  1
15
  0
DICTIONARYVAR
  5
10062
102
{ACAD_REACTORS
330
1005B
102
}
330
1005B
100
DictionaryVariables
280
     0
  1
0
  0
DICTIONARYVAR
  5
10060
102
{ACAD_REACTORS
330
1005B
102
}
330
1005B
100
DictionaryVariables
280
     0
  1
0
  0
DICTIONARY
  5
1000D
330
1000C
100
AcDbDictionary
280
     1
281
     1
  3
BUMPTILE
360
1000F
  3
DIFFUSETILE
360
1000E
  3
OPACITYTILE
360
10012
  3
REFLECTIONTILE
360
10011
  3
REFRACTIONTILE
360
10013
  3
SPECULARTILE
360
10010
  0
DICTIONARY
  5
10005
330
10004
100
AcDbDictionary
280
     1
281
     1
  3
BUMPTILE
360
10007
  3
DIFFUSETILE
360
10006
  3
OPACITYTILE
360
1000A
  3
REFLECTIONTILE
360
10009
  3
REFRACTIONTILE
360
1000B
  3
SPECULARTILE
360
10008
  0
DICTIONARY
  5
10015
330
10014
100
AcDbDictionary
280
     1
281
     1
  3
BUMPTILE
360
10017
  3
DIFFUSETILE
360
10016
  3
OPACITYTILE
360
1001A
  3
REFLECTIONTILE
360
10019
  3
REFRACTIONTILE
360
1001B
  3
SPECULARTILE
360
10018
  0
DICTIONARY
  5
10066
330
10038
100
AcDbDictionary
280
     1
281
     1
  3
ACAD_ROUNDTRIP_2008_TABLESTYLE_CELLSTYLEMAP
360
11F86
  0
XRECORD
  5
1000F
102
{ACAD_REACTORS
330
1000D
102
}
330
1000D
100
AcDbXrecord
280
     1
270
     1
271
     1
  0
XRECORD
  5
1000E
102
{ACAD_REACTORS
330
1000D
102
}
330
1000D
100
AcDbXrecord
280
     1
270
     1
271
     1
  0
XRECORD
  5
10012
102
{ACAD_REACTORS
330
1000D
102
}
330
1000D
100
AcDbXrecord
280
     1
270
     1
271
     1
  0
XRECORD
  5
10011
102
{ACAD_REACTORS
330
1000D
102
}
330
1000D
100
AcDbXrecord
280
     1
270
     1
271
     1
  0
XRECORD
  5
10013
102
{ACAD_REACTORS
330
1000D
102
}
330
1000D
100
AcDbXrecord
280
     1
270
     1
271
     1
  0
XRECORD
  5
10010
102
{ACAD_REACTORS
330
1000D
102
}
330
1000D
100
AcDbXrecord
280
     1
270
     1
271
     1
  0
XRECORD
  5
10007
102
{ACAD_REACTORS
330
10005
102
}
330
10005
100
AcDbXrecord
280
     1
270
     1
271
     1
  0
XRECORD
  5
10006
102
{ACAD_REACTORS
330
10005
102
}
330
10005
100
AcDbXrecord
280
     1
270
     1
271
     1
  0
XRECORD
  5
1000A
102
{ACAD_REACTORS
330
10005
102
}
330
10005
100
AcDbXrecord
280
     1
270
     1
271
     1
  0
XRECORD
  5
10009
102
{ACAD_REACTORS
330
10005
102
}
330
10005
100
AcDbXrecord
280
     1
270
     1
271
     1
  0
XRECORD
  5
1000B
102
{ACAD_REACTORS
330
10005
102
}
330
10005
100
AcDbXrecord
280
     1
270
     1
271
     1
  0
XRECORD
  5
10008
102
{ACAD_REACTORS
330
10005
102
}
330
10005
100
AcDbXrecord
280
     1
270
     1
271
     1
  0
XRECORD
  5
10017
102
{ACAD_REACTORS
330
10015
102
}
330
10015
100
AcDbXrecord
280
     1
270
     1
271
     1
  0
XRECORD
  5
10016
102
{ACAD_REACTORS
330
10015
102
}
330
10015
100
AcDbXrecord
280
     1
270
     1
271
     1
  0
XRECORD
  5
1001A
102
{ACAD_REACTORS
330
10015
102
}
330
10015
100
AcDbXrecord
280
     1
270
     1
271
     1
  0
XRECORD
  5
10019
102
{ACAD_REACTORS
330
10015
102
}
330
10015
100
AcDbXrecord
280
     1
270
     1
271
     1
  0
XRECORD
  5
1001B
102
{ACAD_REACTORS
330
10015
102
}
330
10015
100
AcDbXrecord
280
     1
270
     1
271
     1
  0
XRECORD
  5
10018
102
{ACAD_REACTORS
330
10015
102
}
330
10015
100
AcDbXrecord
280
     1
270
     1
271
     1
  0
CELLSTYLEMAP
  5
11F86
102
{ACAD_REACTORS
330
10066
102
}
330
10066
100
AcDbCellStyleMap
 90
        3
300
CELLSTYLE
  1
TABLEFORMAT_BEGIN
 90
        5
170
     1
 91
        0
 92
    32768
 62
   257
 93
        1
300
CONTENTFORMAT
  1
CONTENTFORMAT_BEGIN
 90
        0
 91
        0
 92
      512
 93
        0
300

 40
0.0
140
1.0
 94
        5
 62
     0
340
11
144
6.0
309
CONTENTFORMAT_END
171
     1
301
MARGIN
  1
CELLMARGIN_BEGIN
 40
1.5
 40
1.5
 40
1.5
 40
1.5
 40
0.18
 40
0.18
309
CELLMARGIN_END
 94
        6
 95
        1
302
GRIDFORMAT
  1
GRIDFORMAT_BEGIN
 90
        0
 91
        1
 62
     0
 92
       -2
340
0
 93
        0
 40
1.125
309
GRIDFORMAT_END
 95
        2
302
GRIDFORMAT
  1
GRIDFORMAT_BEGIN
 90
        0
 91
        1
 62
     0
 92
       -2
340
0
 93
        0
 40
1.125
309
GRIDFORMAT_END
 95
        4
302
GRIDFORMAT
  1
GRIDFORMAT_BEGIN
 90
        0
 91
        1
 62
     0
 92
       -2
340
0
 93
        0
 40
1.125
309
GRIDFORMAT_END
 95
        8
302
GRIDFORMAT
  1
GRIDFORMAT_BEGIN
 90
        0
 91
        1
 62
     0
 92
       -2
340
0
 93
        0
 40
1.125
309
GRIDFORMAT_END
 95
       16
302
GRIDFORMAT
  1
GRIDFORMAT_BEGIN
 90
        0
 91
        1
 62
     0
 92
       -2
340
0
 93
        0
 40
1.125
309
GRIDFORMAT_END
 95
       32
302
GRIDFORMAT
  1
GRIDFORMAT_BEGIN
 90
        0
 91
        1
 62
     0
 92
       -2
340
0
 93
        0
 40
1.125
309
GRIDFORMAT_END
309
TABLEFORMAT_END
  1
CELLSTYLE_BEGIN
 90
        1
 91
        1
300
_TITLE
309
CELLSTYLE_END
300
CELLSTYLE
  1
TABLEFORMAT_BEGIN
 90
        5
170
     1
 91
        0
 92
        0
 62
   257
 93
        1
300
CONTENTFORMAT
  1
CONTENTFORMAT_BEGIN
 90
        0
 91
        0
 92
      512
 93
        0
300

 40
0.0
140
1.0
 94
        5
 62
     0
340
11
144
4.5
309
CONTENTFORMAT_END
171
     1
301
MARGIN
  1
CELLMARGIN_BEGIN
 40
1.5
 40
1.5
 40
1.5
 40
1.5
 40
0.18
 40
0.18
309
CELLMARGIN_END
 94
        6
 95
        1
302
GRIDFORMAT
  1
GRIDFORMAT_BEGIN
 90
        0
 91
        1
 62
     0
 92
       -2
340
0
 93
        0
 40
1.125
309
GRIDFORMAT_END
 95
        2
302
GRIDFORMAT
  1
GRIDFORMAT_BEGIN
 90
        0
 91
        1
 62
     0
 92
       -2
340
0
 93
        0
 40
1.125
309
GRIDFORMAT_END
 95
        4
302
GRIDFORMAT
  1
GRIDFORMAT_BEGIN
 90
        0
 91
        1
 62
     0
 92
       -2
340
0
 93
        0
 40
1.125
309
GRIDFORMAT_END
 95
        8
302
GRIDFORMAT
  1
GRIDFORMAT_BEGIN
 90
        0
 91
        1
 62
     0
 92
       -2
340
0
 93
        0
 40
1.125
309
GRIDFORMAT_END
 95
       16
302
GRIDFORMAT
  1
GRIDFORMAT_BEGIN
 90
        0
 91
        1
 62
     0
 92
       -2
340
0
 93
        0
 40
1.125
309
GRIDFORMAT_END
 95
       32
302
GRIDFORMAT
  1
GRIDFORMAT_BEGIN
 90
        0
 91
        1
 62
     0
 92
       -2
340
0
 93
        0
 40
1.125
309
GRIDFORMAT_END
309
TABLEFORMAT_END
  1
CELLSTYLE_BEGIN
 90
        2
 91
        1
300
_HEADER
309
CELLSTYLE_END
300
CELLSTYLE
  1
TABLEFORMAT_BEGIN
 90
        5
170
     1
 91
        0
 92
        0
 62
   257
 93
        1
300
CONTENTFORMAT
  1
CONTENTFORMAT_BEGIN
 90
        0
 91
        0
 92
      512
 93
        0
300

 40
0.0
140
1.0
 94
        2
 62
     0
340
11
144
4.5
309
CONTENTFORMAT_END
171
     1
301
MARGIN
  1
CELLMARGIN_BEGIN
 40
1.5
 40
1.5
 40
1.5
 40
1.5
 40
0.18
 40
0.18
309
CELLMARGIN_END
 94
        6
 95
        1
302
GRIDFORMAT
  1
GRIDFORMAT_BEGIN
 90
        0
 91
        1
 62
     0
 92
       -2
340
0
 93
        0
 40
1.125
309
GRIDFORMAT_END
 95
        2
302
GRIDFORMAT
  1
GRIDFORMAT_BEGIN
 90
        0
 91
        1
 62
     0
 92
       -2
340
0
 93
        0
 40
1.125
309
GRIDFORMAT_END
 95
        4
302
GRIDFORMAT
  1
GRIDFORMAT_BEGIN
 90
        0
 91
        1
 62
     0
 92
       -2
340
0
 93
        0
 40
1.125
309
GRIDFORMAT_END
 95
        8
302
GRIDFORMAT
  1
GRIDFORMAT_BEGIN
 90
        0
 91
        1
 62
     0
 92
       -2
340
0
 93
        0
 40
1.125
309
GRIDFORMAT_END
 95
       16
302
GRIDFORMAT
  1
GRIDFORMAT_BEGIN
 90
        0
 91
        1
 62
     0
 92
       -2
340
0
 93
        0
 40
1.125
309
GRIDFORMAT_END
 95
       32
302
GRIDFORMAT
  1
GRIDFORMAT_BEGIN
 90
        0
 91
        1
 62
     0
 92
       -2
340
0
 93
        0
 40
1.125
309
GRIDFORMAT_END
309
TABLEFORMAT_END
  1
CELLSTYLE_BEGIN
 90
        3
 91
        2
300
_DATA
309
CELLSTYLE_END
  0
ENDSEC
  0
SECTION
  2
ACDSDATA
 70
     2
 71
     8
  0
ACDSSCHEMA
 90
        0
  1
AcDb_Thumbnail_Schema
  2
AcDbDs::ID
280
    10
 91
        8
  2
Thumbnail_Data
280
    15
 91
        0
101
ACDSRECORD
 95
        0
 90
        1
  2
AcDbDs::TreatedAsObjectData
280
     1
291
     1
101
ACDSRECORD
 95
        0
 90
        2
  2
AcDbDs::Legacy
280
     1
291
     1
101
ACDSRECORD
  1
AcDbDs::ID
 90
        3
  2
AcDs:Indexable
280
     1
291
     1
101
ACDSRECORD
  1
AcDbDs::ID
 90
        4
  2
AcDbDs::HandleAttribute
280
     7
282
     1
  0
ACDSSCHEMA
 90
        1
  1
AcDbDs::TreatedAsObjectDataSchema
  2
AcDbDs::TreatedAsObjectData
280
     1
 91
        0
  0
ACDSSCHEMA
 90
        2
  1
AcDbDs::LegacySchema
  2
AcDbDs::Legacy
280
     1
 91
        0
  0
ACDSSCHEMA
 90
        3
  1
AcDbDs::IndexedPropertySchema
  2
AcDs:Indexable
280
     1
 91
        0
  0
ACDSSCHEMA
 90
        4
  1
AcDbDs::HandleAttributeSchema
  2
AcDbDs::HandleAttribute
280
     7
 91
        1
284
     1
  0
ACDSRECORD
 90
        0
  2
AcDbDs::ID
280
    10
320
10052
  2
Thumbnail_Data
280
    15
 94
     2628
310
89504E470D0A1A0A0000000D49484452000001000000005508030000009198CAA400000300504C5445212830FFFFFF2128300000000000000000000000000000000000000000000000000000330000660000990000CC0000FF0033000033330033660033990033CC0033FF0066000066330066660066990066CC0066FF0099
310
000099330099660099990099CC0099FF00CC0000CC3300CC6600CC9900CCCC00CCFF00FF0000FF3300FF6600FF9900FFCC00FFFF3300003300333300663300993300CC3300FF3333003333333333663333993333CC3333FF3366003366333366663366993366CC3366FF3399003399333399663399993399CC3399FF33CC00
310
33CC3333CC6633CC9933CCCC33CCFF33FF0033FF3333FF6633FF9933FFCC33FFFF6600006600336600666600996600CC6600FF6633006633336633666633996633CC6633FF6666006666336666666666996666CC6666FF6699006699336699666699996699CC6699FF66CC0066CC3366CC6666CC9966CCCC66CCFF66FF0066
310
FF3366FF6666FF9966FFCC66FFFF9900009900339900669900999900CC9900FF9933009933339933669933999933CC9933FF9966009966339966669966999966CC9966FF9999009999339999669999999999CC9999FF99CC0099CC3399CC6699CC9999CCCC99CCFF99FF0099FF3399FF6699FF9999FFCC99FFFFCC0000CC00
310
33CC0066CC0099CC00CCCC00FFCC3300CC3333CC3366CC3399CC33CCCC33FFCC6600CC6633CC6666CC6699CC66CCCC66FFCC9900CC9933CC9966CC9999CC99CCCC99FFCCCC00CCCC33CCCC66CCCC99CCCCCCCCCCFFCCFF00CCFF33CCFF66CCFF99CCFFCCCCFFFFFF0000FF0033FF0066FF0099FF00CCFF00FFFF3300FF3333
310
FF3366FF3399FF33CCFF33FFFF6600FF6633FF6666FF6699FF66CCFF66FFFF9900FF9933FF9966FF9999FF99CCFF99FFFFCC00FFCC33FFCC66FFCC99FFCCCCFFCCFFFFFF00FFFF33FFFF66FFFF99FFFFCCFFFFFF0000000D0D0D1A1A1A2828283535354343435050505D5D5D6B6B6B787878868686939393A1A1A1AEAEAEBB
310
BBBBC9C9C9D6D6D6E4E4E4F1F1F1FFFFFF0000000000000000000000000000000000000000000000000000000000002E4550F10000024B4944415478DAED5BD18EC33008E3FFFFD7EF2755214092B569B59306B54FDBDADB69122EB14DBA1321088220088220088220FE0D10E078792D011D6C065EFE3712703CF05A09C0D4
310
0A257AFA0901CD0E48409DA62EBF047017170448362D84E6B876DC8ED0DA59CF7ACABB24209B1740EB47AFDFFF383A207B04E87305027ABEC715016D751CCFC93420B6BE1EB5CA8D00ADFC8A807C1DF01511849B0893E5A02FB9805B02C97220CCBE9CE2F7703F78829E0F8CA427E0B308865FEE1090D50582E0C1CA772218
310
5C205A424882395D00930B802E702E8270334F01119461396BDB438511B160F102903F09EEBA00D65D935E03B65DC08B1E5421506216D873018CACC9B404F269C0030584AF1B310ABF8300F3CEE17E505E11DCD810E96237B3927D1CBEE902B0A064AC658FC2775C605EE8A945F0BE0BA0D630745B0475997F1A87A5C43D42
310
9CBC71BA04EA0F43682D2035346090B558669F855C59F1AF6C6E4A4A006C3FA0CF7FFEE152810B41ED0D9B84C2A668AE2580698673B2A627E253B07640AF1FC977841E6C88C0F748F269106E7FC75F41B8EB1E7A41F341D7C28528A4D3805E8FA981D5A82E2F272298DDEFBD9E470FF036203B04541F877DDE134C1B852B02
310
7E9D8EA722E8F2C2E507A559025B41480611B47B456B8DF9F5FAF5E67F0C42580421841C300967EE0E90F1CE06ACCA4104D7F370D8219F778B0A6980A5059FF8026D587D7EB6B1F76C1CF651789C9227526392FEE120B42982A3062CDB69D1668582507481DDC6A9A70175BF1EBF555DE5FF0E783D01044110044110044110
310
04411004911B7F1BA51F25FCC9ACE80000000049454E44AE42608279F16A18ECA6804793236D932B5F651B83AA10A0D9BB30BA9C0D707A8241CB61DEAE504F5F34788B818A802402D837EFB4F024F85B5940EDFB50A731744087A531E46D3F85279A53607C25C857424A30A8CB21CAE11E53C08F80CBCBAA23A5C1B2832EBD
310
26189CE37AA7C1E0CFF88534781C00B0E5B39F91C2352174A6721CB518AA0AA193B06330007204EC8490DE2C766086B82575E434488E1032BA8647A0FF0639B4D220F969106CCD782F84F23A390E6F0EFFCAF397EBF8A525CA649E6120E47C35028E32DE37FFBB00583A44FA5F07DA79692023C010422C027277B9C7B6BB47
310
48903C1D40AAC3ADA319A0B60E90EF63A29A16072341B86C660477C90E3535F08589D0619BE85E0819D486B280D0F0F1E599D061A3EC5E08397FE6C407F98E1E52494BBE262D0CB40E5042C82F02A8396D5E7EB5FC1F12B33380972B34D10000000049454E44AE426082720097E7C00E1A84784DAD1042E5CD83E63FBEA514
310
6C9F0A378450C1C150AF01A2C3BC30005A53E130341566860B2D1A6C2FB2753BBC632A0CDE44CE8590CB6BEF54783A021C00B0B91D9EA9016E20B85D07FC9D6BC50DF7CEFF03AFB712AD0C092CE30000000049454E44AE426082950675F80000000049454E44AE4260824AC106F7088FCD04B77CFB9D0B3C791835A8167078
310
8003819CB8F03C90B9B118D29EFAD662801980FA27DEC6D1E0A542700700C534B367A173D718CFF91F36266C82669934830000000049454E44AE4260828EAC151B544C00A42E7CFE47754894B4D5ED8FB100784E203C66B1488766A4AB3EB1D803622C0039681A9C1303622C70541E8004DBEFBF400E8DB2C03F2C40D48A7D
310
DD94C40000000049454E44AE426082D36EA6C2CD14B8A5B63F4D8589705A6D6EB9FE9354D8FCC99B6FA3C29E4F217D09156E334174934EB3C7FE0D5418DD4008FEE6532E3DBE900A77AA41B630B49E058799E0A207ACB3BE930F55EE1643E2EDB533B1122C8EFBA970BDE0271743FCC225E61C3A71EB4F240DECA1C2A05958
310
A4C25C8E369D02F4ACD9E4654F85519773D226992D2B00A0F3DF1694ED0F7E54B8ECAC18F0002C7900D0A1C2E57FF4E24785F33F3519A0A49698563DFA5418C53CF0A3C24C6F8D580C317D87CD3BEFE5F0AFA2C2091545F7A1C29848C1A97C16ED504E179F729F92F0BC06572A3C9F79AF96C26E6FA1DC6B64D155B3C80306
310
48187355D9FC2017A6AD0AE88AEA592638C47F51DC6359448351FAFF1400A62A201096B894168E53E1890A08D38CA00ECC475461F1F60AAD0A92A42CD08B86D52438A40A435B0D2AA7F184468273AA704D85354B63C244687ECDCF548529155E581831104C4FA8C28507A897C636AC0C6D5485914C3CC05A25DBA50A17DDE3
310
8797C64E53E1D34B63C799E0F1A5B1B0515FA9EFE980B91306006161616161616161616161616161616161616161616161616161A6F60F0F6BF3CF792039580000000049454E44AE4260826A7C2B5F012455768B5CE0F888902E3126996BC990BF3C3EB430921E42D15E9D3263D225969177BA8D0622AC4B8C2443A7D9E0B4
310
C2C82D5D62A5073496C7479605EEEB126B54846629BAF77589419AF48097F38065E5F14D99E08FE702CBB3C1B0B0B0B0B0B0B0B0B0B0B0B0B0B0B0B0B0B0B0B0DFB0FF00A86615C7E40D95680000000049454E44AE426082
  0
ENDSEC
  0
EOF
